Águas da Saudade

Milionário e José Rico

 Milionário e José Rico
Tom: C
		
Intro: C G7 C G7 C (2x)


E|-------------------------------------------------------------------------|
A|-------------------------------------------------------------------------|
D|-------------------------------------------------------------------------|
G|-------------------------------------------------------------------------|
B|-5-5-5-5-6--5-5-5-5-6--5-5-5-6-5-3---6-6-6-6-8--6-6-6-6-8--6-6-6-8-6-5---|
E|-3-3-3-3-5--3-3-3-3-5--3-3-3-5-3-1---5-5-5-5-7--5-5-5-5-7--5-5-5-7-5-3---|



E|----------------------------------------------------|
A|----------------------------------------------------|
D|----------------------------------------------------|
G|----------------------------------------------------|
B|-10-10-10-10-12--10-10-10-10-12--10-10-10-12-10-8---|
E|--8--8--8--8-10---8--8--8--8-10---8--8--8-10--8-7---|



E|-----------------------------------------------------------|
A|-----------------------------------------------------------|
D|-----------------------------------------------------------|
G|-----------------------------------------------------------|
B|-8-8-8-8-8--6-6-6-6-6--5-3-1---13-13-12-12--12-12-13-13----|
E|-7-7-7-7-7--5-5-5-5-5--3-1-0---12-12-10-10--10-10-12-12----|


C
Estas águas paradas e calmas  
Que demonstram poesia em tudo 
Sinto um turbilhão em minha alma                                            
                          G7
Que ás vezes quase fico mudo 
Contemplando esta bela paisagem  
Que conforta o meu coração 
Sobre as águas eu vejo a imagem  
   F         G7          C
De quem deu-me esta solidão  
  C7                          F
Nestas águas tranqüilas e serenas 
                       C
É a causa da minha paixão 
                         G7
Essas águas roubou-me a morena  
      F       G7         C
Que foi dona do meu coração, 

( C  G7  C  G7  C ) 2x
 
C
O barquinho que ela remava  
Hoje dorme no fundo das águas  
A mulher que eu mais adorava  
                       G7
Hoje é a razão desta mágoa  
Toda noite em grande agonia  
Adormeço chorando de dor  
Recordando as juras que um dia  
    F         G7        C
Ela fez ao me dar seu amor  
C7                      F
Hoje ela está junto de Deus  
                       C
Me espera quando eu chegar  
                          G7
E os lábios que já foram meus  
     F      G7        C
Novamente eu irei beijar.
42.625 exibições

Comentários 0

Composição: Sabe quem é o compositor? Envie pra gente. Contribuição: Crazy Correções: CaretinhaUlrei »
Exibir acordes »
publicidade
fechar