Em Paz

Natiruts

 Natiruts
Intro

G|-----------------------------------------------------------------------------
D|-----------------------------------------------------------------------------
A|-----2-3-2---------2-3-2---------2-3-2---------------------------------------
E|-0-3--------3--0-3--------3--0-3--------3---4-4-4-4-4-4444---4-4-4-4-4-444434

G|-----------------------------------------------------------------------------
D|-----------------------------------------------------------------------------
A|-----2-3-2---------2-3-2-----------------------------------------------------
E|-0-3--------3--0-3--------3---4-4-4-4-4-4444---4-4-4-4-4-444434--------------


Dizem que o medo e a dor .....

G|-------------------------------------------------------
D|-------------------------------------------------------    2 
A|-33----------33----------------------------------------    X
E|----4-0-4-------4-0-4---44-4-34---44-4-34--4-34--------


Pelo seu amor, cho...rei

G|--------------------------------------------------------
D|--------------------------------------------------------
A|-----2-3-2---------2-3-2--------------------------------
E|-0-3--------3--0-3--------3---4444-4-4444-4-4444-4-44---


Pelo seu amor, que essa alma se lançou ....

G|-------------------------------------------------------------------
D|-------------------------------------------------------------------    2
A|-----2-3-2---------2-3-2-------------------------------------------    X
E|-0-3--------3--0-3--------3---4-4-4-4-4-4444---4-4-4-4-4-444434----


Refrão

G|--------------------------------------------------------------
D|--------------------------------------------------------------    2 
A|-33-3---3--------33-3---3-------------------------------------    X
E|------4-----3343------4-----3343--11-1-1-1-1111-44-4-4-4-444--


Solo

G|-------------------------------------------------------
D|-------------------------------------------------------    2 
A|-33----------33----------------------------------------    X
E|----4-0-4-------4-0-4---44-4-34---44-4-34--4-34--------



(escute bem a musica para pegar o baixo certinho)

*biel_od@hotmail.com
2.593 exibições

Comentários 1

  • jowjow_vl jowjow_vl: Postado em 24/04/2013 23:04

    ha cara a cifra ta certa mais voce num sobe dividir o tempo dela mais valeu

Consegui tocarAinda não conseguiram tocar essa música. Seja o primeiro!
    Não consegui tocar
    publicidade
    fechar