Entre Nós Dois

Nx Zero

 Nx Zero
Tom: E
		
(intro 2x) E A C#m B


E|---------------------------------------------------------------------------------------|
B|---------------------------------------------------------------------------------------|
G|13-13-13-11-11-13-13-13-14-14-14-14-14-14-14-14-13-13-13-13-13-13-13-13-13-13-13-13-13-|
D|14-14-14-14-14-14-14-14-14-14-14-14-14-14-14-14-14-14-14-14-14-14-14-14-14-14-14-14-14-|
A|---------------------------------------------------------------------------------------|
E|---------------------------------------------------------------------------------------|


(base) 


E|-------------|
B|---5---5-4---|
G|--6-4-4------|  (2x) (riff 2)
D|-6---6-------|
A|-------------|
E|-------------|


(primeira parte)

   C#m         E              A            B
E|-4------------0--------------0------------2-----------|
B|----5------------0-------------2------------4---------|
G|------6-------------1------------2------------4-------|
D|--------5-------------2------------2-----------4------|
A|------------------------------------------------------|
E|------------------------------------------------------|


Tem coisas que não dá pra esconder
Que todo mundo vê
Que se pegam pelo olhar e vive uma mentira
Ou mentem pra viver como uma frustração
Como uma saída

B      F#m   C#m            E      A                B
O tempo revela todas as respostas dentro de cada um

(refrão)
E               A               C#m               B
Tem coisas em você que me fazem bem não sei por que

Entre nós dois
E                   A
Sempre foi e sempre será assim
        C#m                       B
Cada vez mais(cada vez mais) te vejo em mim

(riff 2)

(primeira parte)
Nem tudo é como a gente quer
É como tem que ser
Acho que só vou saber
Mesmo como sou
Quando perder pra sempre algo que realmente faz falta

B     F#m   C#m       E
O tempo revela todas as respostas
A                  B
dentro de cada um

(refrão)
E               A               C#m               B
Tem coisas em você que me fazem bem não sei por que

Entre nós dois
E                   A
Sempre foi e sempre será assim
        C#m                       B
Cada vez mais(cada vez mais) te vejo em mim

(solo) C#m A E B


E|------------------------------------------------------------------------------|
B|------------------------------------------------------------------------------|
G|-13-13-13/16-16-16-16-13-14-16-13-14-16--------------------------11/13/11-----|
D|---------------------------------------13-14-16-13-14-16-11/13-14--------14-11|
A|------------------------------------------------------------------------------|
E|------------------------------------------------------------------------------|



E|-----------------------------------|
B|-----------------------------------|
G|--------11/13/11-------------------|
D|------14--------14-----------------|
A|-14/16------------14-12/14/12-11---|
E|--------------------------------12-|


A                  B        C#m
Não tem como esconder meu desejo (de te ter de novo)

A                  B          C#m
Tente ver em meus olhos o que sinto
                 B
(Vai além das palavras)
A                B
Preciso te dizer

(refrão 2x)
E               A                C#m             B
Tem coisas em você que me fazem bem não sei por que

Entre nós dois
E                   A
Sempre foi e sempre será assim
        C#m                       B
Cada vez mais(cada vez mais) te vejo em mim

Comentários 1

  • ny_mcz ny_mcz: Postado em 15/06/2011 21:44

    Mt massa essa peguei ...

Composição: Angel Helaire / Kevin Bard / Robert Beeson
Esse não é o compositor? Avise-nos.
Contribuição: hldr
Exibir acordes »
publicidade
fechar