Crazy Train

Ozzy Osbourne

 Ozzy Osbourne
Introdução:
G|---------------------------------------------------
D|-----------------0-0---------------------0-0-------
A|-----0-0---------------------0-0-------------------
E|-2-2-----0-0-2-2-----0-0-2-2-----0-0-2-2-----0-0---

G|---------------------------------------------------
D|-----------------0-0---------------------0---------
A|-----0-0---------------------0-0-------------------
E|-2-2-----0-0-2-2-----0-0-2-2-----0-0-2-2---0-------

G|---------------------------------------------------
D|-----------7---6---4---------------7-7---6---4-----
A|-0-0-0-0-0---0---0---0-7-0-0-0-0-0-----0---0---0-7-
E|---------------------------------------------------

All aboard, hahahahahahaha!
ai ai ai!


Primeira parte:
G|---------------------------------------------------
D|-----------7---6---4---------------7-7---6---4-----
A|-0-0-0-0-0---0---0---0-7-0-0-0-0-0-----0---0---0-7-
E|---------------------------------------------------
                                                      (2x)
G|---------------------------------------------------
D|-----------7-7---6---4---------------7---6---4-----
A|-0-0-0-0-0-----0---0---0-7-0-0-0-0-0---0---0---0-7-
E|---------------------------------------------------

(...)
Crazy, but that's how it goes
Millions of people living as foes
Maybe it's not too late
To learn how to love
And forget how to hate


Refrão:
G|---------------------------------------------------
D|---------------------------------------------------
A|-----------5-------------------------5-------------
E|-2-0-2-0-2---2-3-4-5-4-3-0-2-0-2-0-2---2-3-4-5-4-3-

G|---------------------------------------------------
D|---------------------------------4---4---4---4-4---
A|-------------------0h2-0---------------------------
E|-0-5-5-5-4-2-0-0-0-------4-5-2-2---2---2---2-----2-

G|---------------------------------------------------
D|-4--4---4------------------------------------------
A|-----------------------------0h2-0-----------------
E|---2---2---0-5-5-5-4-2-0-0-0-------4-5-------------

(...)
Mental wounds not healing
Life's a bitter shame
I'm going off the rails on a crazy train
I'm going off the rails on a crazy train


Interlúdio:
G|---------------------------------------------------
D|---------------------------------------------------
A|-----------0---------------------5-5-5-------------
E|-2-0-2-2-4---4-2-0-2-4-2-0-2-2-2-------0-0-0-------

G|---------------------------------------------------
D|-----------7---6---4----------------7---6---4------
A|-0-0-0-0-0---0---0---0-7-0-0-0-0-0----0---0---0-7--
E|---------------------------------------------------


Segunda parte:
G|---------------------------------------------------
D|-----------7---6---4---------------7-7---6---4-----
A|-0-0-0-0-0---0---0---0-7-0-0-0-0-0-----0---0---0-7-
E|---------------------------------------------------
                                                      (2x)
G|---------------------------------------------------
D|-----------7-7---6---4---------------7---6---4-----
A|-0-0-0-0-0-----0---0---0-7-0-0-0-0-0---0---0---0-7-
E|---------------------------------------------------

(...)
I've listened to preachers
I've listened to fools
I've watched all the dropouts
Who make their own rules
One person conditioned
To rule and control
The media sells it
And you live the role


Refrão:
G|---------------------------------------------------
D|---------------------------------------------------
A|-----------5-------------------------5-------------
E|-2-0-2-0-2---2-3-4-5-4-3-0-2-0-2-0-2---2-3-4-5-4-3-

G|---------------------------------------------------
D|---------------------------------4---4---4---4-4---
A|-------------------0h2-0---------------------------
E|-0-5-5-5-4-2-0-0-0-------4-5-2-2---2---2---2-----2-

G|---------------------------------------------------
D|-4--4---4------------------------------------------
A|-----------------------------0h2-0-----------------
E|---2---2---0-5-5-5-4-2-0-0-0-------4-5-------------

(...)
Mental wounds still screaming
Driving me insane
I'm going off the rails on a crazy train
I'm going off the rails on a crazy train


Interlúdio 2:
G|---------------------------------------------------
D|---------------------------------------------------
A|-----------0---------------------5-5-5-------------
E|-2-0-2-2-4---4-2-0-2-4-2-0-2-2-2-------0-0-0-------


Terceira parte:
G|---------------------------------------------------
D|-----------------0-0---------------------0---------
A|-----0-0---------------------0-0-------------------
E|-2-2-----0-0-2-2-----0-0-2-2-----0-0-2-2---0-------

(...)
I know that things are going wrong for me
You gotta listen to my words, yeah!


Solo de guitarra:
G|---------------------------------------------------
D|---------------------------------------------------
A|-/9-9-9-9-9-9-9-9-9-7-7-7-7-5-5-5-5-5-5-5-5-5------
E|---------------------------------------------------

G|---------------------------------------------------
D|---------------------------------------------------
A|-4-4-4-4-2-2-2-2-2-0-0-0-0-------------------------
E|---------------------------4-4-4-4-2-2-2-2-2-2-2-2-

G|---------------------------------------------------
D|---------------------------------------------------
A|---------------------------------------------------
E|-2-2-2-2-2/----------------------------------------

G|---------------------------------------------------
D|---------------------------------------------------
A|-/9-9-9-9-9-9-9-9-9-7-7-7-7-5-5-5-5-5-5-5-5-5------
E|---------------------------------------------------

G|---------------------------------------------------
D|-------------------------------------------------2-
A|-4-4-4-4-2-2-2-2-2-0-0-0-0-----------------0-2-4---
E|---------------------------4-4-4-4-2-0-2-4---------

G|---------------------------------------------------
D|-4-4-4-4-4-4-4-4-4-2-2-2-2-5-5-5-5-5-5-5-5-5-------
A|---------------------------------------------------
E|---------------------------------------------------

G|---------------------------------------------------
D|---------------------------------------------------
A|-4-4-4-4-2-2-2-2-2-0-0-0-0-------------------------
E|---------------------------4-4-4-4-2-2-2-2-2-2-2-2-

G|---------------------------------------------------
D|---------------------------------------------------
A|---------------------------------------------------
E|-2-2-2-2-2/----------------------------------------

G|---------------------------------------------------
D|---------------------------------------------------
A|-/9-9-9-9-9-9-9-9-9-7-7-7-7-5-5-5-5-5-5-5-5-5------
E|---------------------------------------------------

G|---------------------------------------------------
D|---------------------------------------------------
A|-4-4-4-4-2-2-2-2-2-0-0-0-0-------------------------
E|---------------------------4-4-4-4-0-0-0-0-0-0-0-0-


Interlúdio 3:
G|---------------------------------------------------
D|-----------------0-0---------------------0---------
A|-----0-0---------------------0-0-------------------
E|-2-2-----0-0-2-2-----0-0-2-2-----0-0-2-2---0-------

G|---------------------------------------------------
D|-----------7---6---4---------------7-7---6---4-----
A|-0-0-0-0-0---0---0---0-7-0-0-0-0-0-----0---0---0-7-
E|---------------------------------------------------


Quarta parte:
G|---------------------------------------------------
D|-----------7---6---4---------------7-7---6---4-----
A|-0-0-0-0-0---0---0---0-7-0-0-0-0-0-----0---0---0-7-
E|---------------------------------------------------
                                                      (2x)
G|---------------------------------------------------
D|-----------7-7---6---4---------------7---6---4-----
A|-0-0-0-0-0-----0---0---0-7-0-0-0-0-0---0---0---0-7-
E|---------------------------------------------------

(...)
Heirs of a cold war
That's what we've become
Inheriting troubles
I'm mentally numb
Crazy, I just can not bear
I'm living with something
That just isn't fair


Refrão:
G|---------------------------------------------------
D|---------------------------------------------------
A|-----------5-------------------------5-------------
E|-2-0-2-0-2---2-3-4-5-4-3-0-2-0-2-0-2---2-3-4-5-4-3-

G|---------------------------------------------------
D|---------------------------------4---4---4---4-4---
A|-------------------0h2-0---------------------------
E|-0-5-5-5-4-2-0-0-0-------4-5-2-2---2---2---2-----2-

G|---------------------------------------------------
D|-4--4---4------------------------------------------
A|-----------------------------0h2-0-----------------
E|---2---2---0-5-5-5-4-2-0-0-0-------4-5-------------

(...)
Mental wounds not healing
Who and what's to blame
I'm going off the rails on a crazy train
I'm going off the rails on a crazy train


Final:
G|---------------------------------------------------
D|---------------------------------------------------
A|-----------0---------------------5-5-5-------------
E|-2-0-2-2-4---4-2-0-2-4-2-0-2-2-2-------0-0-0-------

G|---------------------------------------------------
D|-----------------0-0---------------------0-0-------
A|-----0-0---------------------0-0-------------------
E|-2-2-----0-0-2-2-----0-0-2-2-----0-0-2-2-----0-0...

Comentários 6

  • joaopaulo.moraissousa joaopaulo.moraissousa: Postado em 28/09/2014 17:11

    onde encontro essa bt?

  • Caio Caio: Postado em 19/01/2014 11:47

    A tab é fácil, mas vo tentar tirar de ouvido mesmo kkk

  • ta_tah ta_tah: Postado em 24/11/2013 22:55


    dfds

  • lucas lucas: Postado em 14/09/2013 18:06

    boa

  • karine karine: Postado em 10/09/2013 14:35

    Massa de musica!! yeeeh! \_/

  • ninja_fanboy ninja_fanboy: Postado em 31/05/2011 11:35

    me perco as vezes, mais consigo :x

Composição: Bob Daisley / Ozzy Osbourne / Randy Rhoads
Esse não é o compositor? Avise-nos.
Contribuição: Filipe
publicidade
fechar