Mama I'm coming home

Ozzy Osbourne

 Ozzy Osbourne
Tom: E
		
E
Times have changed and times are strange
Here I come, but I ain't the same
A
Mama, I'm coming home
E
Times gone by seems to be
You could have been a better friend to me
A                 E
Mama, I'm coming home
C#m                      A
You took me in and you drove me out
                   E
Yeah, you had me hypnotized
C#m                      A
Lost and found and turned around
             B
By the fire in your eyes
         E
You made me cry, you told me lies

But I can't stand to say goodbye
A
Mama, I'm coming home
E
I could be right, I could be wrong
Hurts so bad, it's been so long
A                 E
Mama, I'm coming home
C#m                         A
Selfish love yeah we're both alone
        E
The ride before the fall, yeah
         C#m                    A
But I'm gonna take this heart of stone
           B4/E
I just got to have it all
A                              E
I've seen your face a hundred times
A                        E
Everyday we've been apart
A             B4/E           E    A
I don't care about the sunshine, yeah
       A     B4/E             C   D   E
'Cause Mama, Mama, I'm coming home
              C  D  B
I'm coming home

     |1  2  3  4|    |1  2  3  4|1 2 3 4|    |    |    |    |    |1   2  3 4 |    |
Solo: G A  E     E    G A  E     B7      A    E    A    E    A B  C#m B  A    B

   C#m                  A
You took me in and you drove me out
                    E
Yeah, you had me hypnotized
C#m                  A
Lost and found and turned around
             B
By the fire in your eyes
A                         E
I've seen your face a thousand times
A              E
Everyday we've been apart
A             B       E     A
I don't care about the sunshine, yeah
       A     B                C   D  E
'Cause Mama, Mama, I'm coming home
           C   D  E
I'm coming home
           C   D  E
I'm coming home
           C   D  E
I'm coming home

Intro:

E|-12------------|
B|----12---------|
G|-------11b12--9|
D|---------------|
A|---------------|
E|---------------|


Riff:

E|----0--------0---|---0-------0---|---0-------0---|---0--------0--|
B|------0--------0-|-----0-------0-|-----0-------0-|-----0--------0|
G|--9-------8------|-6-------4-----|-2-------1-----|---------------|
D|-----------------|---------------|---------------|-4-------2-----|
A|-----------------|---------------|---------------|---------------|
E|-----------------|---------------|---------------|---------------|


Dedilhado:

E|--------0-----|-------0-------|------0-----|-----0-------0---|
B|----0-----0---|---0-----0---0-|--0-----0---|-------0-------0-|
G|-/2---2-----2-|-2---2-----2---|1---1-----1-|-1/2-----2/4-----|
D|--------------|---------------|------------|-----------------|
A|--------------|---------------|------------|-----------------|
E|--------------|---------------|------------|-----------------|


Pré-Solo:

E|---0-----0------0------0---|
B|-----0-----0------0------0-|
G|-0------2-----4------4-----|


Solo :         < AFINAÇÃO PADRÃO >

E|----------------------12-----12--------|--------------------------|
B|----------------------12p14--12p14--10-|-12~~--10---10h12r10--9~~-|
G|-------9----9--11p13-------------------|--------------------------|
D|--9h11---11----------------------------|--------------------------|
A|---------------------------------------|--------------------------|
E|---------------------------------------|--------------------------|




E|----------------------12-----12--------|--------------------------|
B|----------------------12p14--12p14--10-|-12~~--10---10h12r10--9~~-|
G|-------9----9--11p13-------------------|--------------------------|
D|--9h11---11----------------------------|--------------------------|
A|---------------------------------------|--------------------------|
E|---------------------------------------|--------------------------|



E|---------------------------------------|
B|---------------------------------------|
G|------9----9--9tr---11p13--9---11~~--9-|
D|-9h11---11-----------------------------|
A|---------------------------------------|
E|---------------------------------------|



E|-19p21--19b21-----------------------------|
B|-19p21--19p21-17h19r17~~-19p21--19p21--17-|
G|------------------------------------------|
D|------------------------------------------|
A|------------------------------------------|
E|------------------------------------------|



E|----------16--17--18--19--19p21--------------------|
B|-19~~---------------------------19p21--17-----17~~-|
G|-------------------------------------------18------|
D|---------------------------------------------------|
A|---------------------------------------------------|
E|---------------------------------------------------|
Texto Colunas
Alterar tom ½ tom ½ tom
afinação acordes na letra esconder tabs mais »

Comentários (18)

  • johnrambo johnrambo: Postado em 26/12/2013 17:34

    A cifra ta certa. Só que o tom é Eb. É so descer o violão meio tom e tocar como está ai.

  • william william: Postado em 09/11/2013 16:00

    Qual é o ritmo dessa musica ???

  • RUDIRICARDO RUDIRICARDO: Postado em 23/01/2013 06:40

    os acordes estão corretos, mas acho que o tom não é esse. outra coisa,as notas estão bem fora de lugar....confundirá quem tá iniciando!!!

  • mths59 mths59: Postado em 21/06/2012 10:10

    o tom não é E?

  • qwertyuiopghjk qwertyuiopghjk: Postado em 16/01/2012 11:23

    mas tem alguns erros!

  • qwertyuiopghjk qwertyuiopghjk: Postado em 16/01/2012 11:23

    cara é mto fáciil, mas coloquem uma vid aula pelo menos numa do ozzy e param de coloca no restart

  • lyahsd lyahsd: Postado em 15/01/2012 14:33

    Aff cade a video aula daki em!?

  • gustavorose gustavorose: Postado em 12/01/2012 22:09

    Video aula!

  • chris_11 chris_11: Postado em 05/01/2012 11:56

    Muito boa música, video-aula seria legal, pra te pelo menos 1 do Ozzy, mas ja da pra toca tranquilo ela sem video-aula

  • ozzymetal ozzymetal: Postado em 15/07/2011 19:56

    Pq q logo o principe das trevas, nao tem nenhuma video aula?? po para de fazer aula dessas musicas do restart e valorize o metal!!!!

Exibindo 10 de 18 comentários Mostrar mais ver todos »
Composição: Bobby Sharp / Gustavo Lins / Latavia Chufon Parker / Lemmy / Ozzy Osbourne / Rodriguinho / Zakk Wylde
Esse não é o compositor? Avise-nos.
Contribuição: Padre_Quevedo Correções: rossado , N.a.n.o. e mais 2 »
  1. Tudo Que Você Quiser - Luan Santana Manteve-se 6.122 exibições
  2. Lepo Lepo - Psirico Manteve-se 4.394 exibições
  3. Mozão - Lucas Lucco Manteve-se 4.201 exibições
  4. Logo Eu - Jorge e Mateus Manteve-se 4.020 exibições
  5. Pra Você - Onze:20 Manteve-se 4.019 exibições
  6. Gaveta - Fernando e Sorocaba Manteve-se 3.769 exibições
  7. Só Os Loucos Sabem - Charlie Brown Jr. Manteve-se 3.071 exibições
  8. Tempo Perdido - Legião Urbana Manteve-se 2.714 exibições
  9. Fui Fiel - Gusttavo Lima Manteve-se 2.713 exibições
  10. Domingo de Manha - Marcos e Belutti Manteve-se 2.289 exibições
  1. Jorge e Mateus- Manteve-se 23.884 exibições
  2. Legião Urbana- Manteve-se 21.696 exibições
  3. Luan Santana- Manteve-se 17.411 exibições
  4. Charlie Brown Jr.- Manteve-se 17.352 exibições
  5. Fernandinho- Manteve-se 14.841 exibições
  6. Católicas- Manteve-se 11.201 exibições
  7. Thalles Roberto- Manteve-se 11.085 exibições
  8. Gusttavo Lima- Manteve-se 11.009 exibições
  9. Victor e Leo- Manteve-se 10.721 exibições
  10. Bruno e Marrone- Manteve-se 10.310 exibições
Exibir acordes »

Cifras e tabs

Fórum Cifra Club

Aprenda

Cifra Club News

Mais Serviços Cifra Club ID

Studio Sol

©1996 - 2014 Cifra Club · o primeiro, maior e mais acessado do Brasil · 329 mil músicas · 6.0 milhões pessoas cadastradas

publicidade
fechar