Até quando esperar

Plebe Rude

 Plebe Rude
Tom: C
		
Intr.: D G5 C5 G5


E|---------------------------------------------------------------------------
B|---------------------------------------------------------------------------
G|---------------------------------------------------------------------------
D|---------------------------------------------------------------------------
A|---0----2--3/7--5--0--3--2--0----------------------------------------------
E|-------------------------------0-------------------------------------------


Dedilhado: D5 F G D5


E|-------0---------------0-----------------0----------0----------------------
B|---3-------3-------3-------3---3-------6---6------8---8--------------------
G|-----2---------2-----2-------2-------5----------7--------------------------
D|-0---------------------------------0----------0----------------------------
A|---------------------------------------------------------------------------
E|---------------------------------------------------------------------------



 Dedilhado pré refrão: Am G F D
                                                              |--refrão--|
        2x           2x           2x                            F5  G5  D5

E|------------|------------|------------|------------------------------------
B|-------0----|-------0----|-------0----|-------0-----8----------------------
G|----5-----5-|----5-----5-|----5-----5-|----5-----5-----5--7--10--12--7-----
D|-7----------|-5----------|-3----------|-7--------------------10--12--7-----
A|------------|------------|------------|----------------------8---10--5-----
E|------------|------------|------------|------------------------------------

D                      C           G       D
Não é nossa culpa nascemos já com uma bênção,
D                          C         G      D
mas isso não é desculpa pela má distribuição.
     A                        G           C      G     D
Com tanta riqueza por ai onde é que está, cadê sua fração? (BIS)
      C          G        D
Até quando esperar?

D                   C          G       D
E cadê a esmola que nós damos sem perceber,
D                          C      G       D
que aquele abençoado poderia ter sido você.
     A                        G           C      G     D
Com tanta riqueza por ai onde é que está cadê sua fração? (BIS)
    C     G              C    G           C      G       D
Até quando esperar, a plebe ajoelhar esperando ajuda de Deus? (BIS)

(D  C  G  C)(x2)  (ritmo reggae)
                       /\
                      /||\

     D   C   G <--------||
E|--5---3---3-----
B|--7---5---3-----
G|--7---5---4-----
D|--7---5---5-----
A|----------------
E|----------------


 D                C                 G                        C
Posso vigiar teu carro, te pedir trocados, engraxar seus sapatos.   (BIS)


 Intro 2: D  (com dedilhado no fundo apenas)
Intro 3 (com riff):   D   D   C G   D

D                      C           G       D
Sei, não é nossa culpa nascemos já com uma bênção,
D                      C           G       D
mas isso não é desculpa pela má distribuição.

Solo: ( A  G  C  G  D )


E|---------------------------------------------------------------------------
B|----------------------12-12b13-12b13r12-8--/13-13-12-12-10-10-8-5-10-------
G|-------------------------------------------/14-14-12-12-10-10-9-5-10-------
D|--------------5-7HA~~------------------------------------------------------
A|--------5-7-8--------------------------------------------------------------
E|--5-7-8--------------------------------------------------------------------


     A                        G           C      G     D
Com tanta riqueza por ai onde é que está cadê sua fração?
    C     G              C    G           C      G       D
Até quando esperar, a plebe ajoelhar esperando ajuda de Deus?
    C     G              C    G           C      G       D
Até quando esperar, a plebe ajoelhar esperando ajuda do divino Deus?
Texto Colunas
Alterar tom ½ tom ½ tom
afinação acordes na letra esconder tabs mais »

Comentários (4)

  • caiopedrorosas caiopedrorosas: Postado em 31/08/2013 17:24

    a versão do detonautas tá melhor de tocar!

  • Agnaldo Agnaldo: Postado em 08/07/2013 22:57

    facil, música Fodaaaaaaaaaaaaaaaaaa

  • gpasqual gpasqual: Postado em 21/02/2013 18:55

    video aulaa

Composição: Alqaisi / Joolz / Michael Jones / Moh
Esse não é o compositor? Avise-nos.
Contribuição: tonante.finder Correções: moreira_victor , lucas.paz.santos e mais 3 »
  1. Tudo Que Você Quiser - Luan Santana Manteve-se 6.004 exibições
  2. Lepo Lepo - Psirico Manteve-se 4.431 exibições
  3. Mozão - Lucas Lucco Manteve-se 4.139 exibições
  4. Logo Eu - Jorge e Mateus Manteve-se 3.880 exibições
  5. Gaveta - Fernando e Sorocaba Manteve-se 3.331 exibições
  6. Pra Você - Onze:20 Manteve-se 3.309 exibições
  7. Só Os Loucos Sabem - Charlie Brown Jr. Manteve-se 3.010 exibições
  8. Tempo Perdido - Legião Urbana Manteve-se 2.530 exibições
  9. Fui Fiel - Gusttavo Lima Manteve-se 2.507 exibições
  10. Na Linha do Tempo - Victor e Leo Manteve-se 2.140 exibições
  1. Jorge e Mateus- Manteve-se 23.268 exibições
  2. Legião Urbana- Manteve-se 20.589 exibições
  3. Luan Santana- Manteve-se 17.386 exibições
  4. Charlie Brown Jr.- Manteve-se 17.172 exibições
  5. Fernandinho- Manteve-se 14.617 exibições
  6. Thalles Roberto- Manteve-se 11.189 exibições
  7. Católicas- Manteve-se 11.033 exibições
  8. Gusttavo Lima- Manteve-se 10.465 exibições
  9. Victor e Leo- Manteve-se 10.434 exibições
  10. Aline Barros- Manteve-se 10.076 exibições
Exibir acordes »

Cifras e tabs

Fórum Cifra Club

Aprenda

Cifra Club News

Mais Serviços Cifra Club ID

Studio Sol

©1996 - 2014 Cifra Club · o primeiro, maior e mais acessado do Brasil · 329 mil músicas · 5.9 milhões pessoas cadastradas

publicidade
fechar