Depois da curva

Pouca Vogal

 Pouca Vogal Compositor: Gessinger
Tom: G
		
Afinação| DAGDAD


D|--12---13--------------|
A|--12---13--------------|   Harmônicos
G|--12---13--------------|
D|--12---13--------------|
A|-----------------------|
D|5----5-----------------|



(intro 4x) G

G           C
amanhã, talvez
          Em               Am    D *
esse vendaval faça algum sentido
G             C
dá pra se dizer
              Em           Am   D *
qualquer coisa sobre todo mundo
Em           D
por hoje é só


D|------------------|
A|---0---0----------|
G|------------------|
D|-3---2----0-------|
A|------------------|
D|---------------0--|


     C              Cm
vou deixar passar a ventania


D|---------8--------8----|
A|-------8--------8------|
G|-----9--------8--------|
D|--10-------10----------|
A|-----------------------|
D|-----------------------|


Em          D
talvez amanhã


D|------------------|
A|---0---0----------|
G|------------------|
D|-3---2----0-------|
A|------------------|
D|---------------0--|


       C        Cm
vento, vela e velocidade


D|---------8--------8----|
A|-------8--------8------|
G|-----9--------8--------|
D|--10-------10----------|
A|-----------------------|
D|-----------------------|


Em    Am
mar azul
Em    Am   Am/B   Am/C  Am/D  G      G/F
céu azul   sem    nu-----vens
     Em7     Am  Am/B  Am/C  Am/D
logo ali… depois da    cur---va
G          G/F  Em7   Am   Am/B Am/C  Am/D
ali, logo ali, ali… depois da   cur---va

(solo 2x) G


D|--------------------|
A|--------------------|
G|----0--0---0-0-0----|
D|--10--9--7----5-----|
A|--------------------|
D|--------------------|



D|--------------------|
A|--------------------|
G|----0--0---0-0------|
D|--10--9--7-----12---|
A|--------------------|
D|--------------------|


G           C
amanhã talvez
        Em              Am  D
esse temporal saia do caminho
G            C
dá pra escrever
           Em                 Am  D
o papel aceita toda qualquer coisa
Em          D
por hoje é só


D|------------------|
A|---0---0----------|
G|------------------|
D|-3---2----0-------|
A|------------------|
D|---------------0--|


        C            Cm
vou deixar passar a tempestade
Em          D
talvez amanhã


D|------------------|
A|---0---0----------|
G|------------------|
D|-3---2----0-------|
A|------------------|
D|---------------0--|



C             Cm
água pura e toda verdade

Em    Am
mar azul
Em    Am   Am/B   Am/C  Am/D  G      G/F
céu azul   sem    nu-----vens
     Em7     Am  Am/B  Am/C  Am/D
logo ali… depois da    cur---va
G          G/F  Em7   Am   Am/B Am/C  Am/D
ali, logo ali, ali… depois da   cur---va

(solo - toca as duas cordas juntas)

(dedilhando)

(solo 2x) G


D|--------------------|
A|--------------------|
G|----0--0---0-0-0----|
D|--10--9--7----5-----|
A|--------------------|
D|--------------------|



D|--------------------|
A|--------------------|
G|----0--0---0-0------|
D|--10--9--7-----12---|
A|--------------------|
D|--------------------|


No final das duas vezes toca esse

D|---------------------------|
A|---------------------------|
G|----0--0-----------0-0-0-0-|
D|---5--7--7/9-7-5-7--5---5--|
A|---------------------------|
D|---------------------------|


( G Am Am/B Am/C Am/D )

G          G/F  Em7   Am   Am/B Am/C  Am/D
ali, logo ali, ali… depois da   cur---va
G          G/F    Em7            Am   Am/B Am/C  Am/D
ali, logo ali, eu vi, eu vim, venci   a    cur---va...

( G )

*riff que o Humberto faz no violão

E|---------------|
B|----1-1/3-3----|
G|---------------|
D|----2-2/4-4----|
A|-0-------------|
D|---------------|
100.268 exibições

Comentários 0

Composição: Duca Leindecker / Humberto Gessinger
Esse não é o compositor? Avise-nos.
Contribuição: sergio Correções: carlos1eduardo , slash e mais 4 »
Exibir acordes »
publicidade
fechar