O Pão Da Minha Prima

Raimundos

 Raimundos
O PÃO DA MINHA PRIMA by RAIMUNDOS. Álbum: Lavô tá novo
Outra música com tema engraçado. Esse CD é demais...
Calangos do cerrado ainda apavoram véi...
Fácim, fácim...

intro:
G-|-----------------------------------------|--------------------------------------->
D-|-----------------------------------------|--------------------------------------->
A-|-----------------------------------------|--------------------------------------->
E-|-4/5-55-555--4/5-55-555--4/5-55--0-5-0-5-|-4/5-55-555-4/5-55-555-4/5-55--0-5-0-5->

("A minha prima arranjou um namorado...")
G-|---------------------------------------------------------------------------->
D-|---------------------------------------------------(------duas-vezes------)->
A-|----------------------------------5-55-555----------6/7-77-777--6/7-77-777-->
E-|-4/5-55-555-4/5-55-555-4/5-55-555----------5-55-555-------------------------> repete intro/1x

("Que ela chama é o pão duro do padeiro...")
G-|------------------------------------------------------------------------------>
D-|------------------------------------------------------(------duas-vezes-----)->
A-|-5-55-555----------7-77-777----------5-55-555----------6/7-77-777-6/7-77-777-->
E-|----------5-55-555----------5-55-555----------5-55-555------------------------>

solo de guitarra:
G-|----------------------------------------------------------------------------------------->
D-|----------------------------------------------------------------------------------------->
A-|-----------------------------------------------22/44-5-55-555----------7-77-777---------->
E-|-4/5-55-555--4/5-55-555--4/5-55-555-4/5-55-555----------------5-55-555----------5-55-555->

G-|------------------------------------------------------------------------------------------->
D-|-------------------------------------------------------------------(------duas-vezes-----)->
A-|-22/44-5-55-555----------7-77-777----------22/44-5-55-555----------6/7-77-777--6/7-77-777-->
E-|----------------5-55-555----------5-55-555----------------5-55-555------------------------->

G-|----------------------------------------->
D-|----------------------------------------->
A-|----------------------------------------->
E-|-4/5-55-555--4/5-55-555--4/5-55--0-5-0-5->

("Mas o viado do padeiro...")
G-|------------------------------------------------------------------------------------->
D-|-------------------------------------------------------------(------duas-vezes-----)->
A-|-5-55-555----------7-77-777----------22/44--5-55-555----------6/7-77-777-6/7-77-777-->
E-|----------5-55-555----------5-55-555-----------------5-55-555------------------------>

final:
G-|-------------------------------------------------------------------------||
D-|-------------------------------------------------------------------------||
A-|-------------------------------------------------------------------------||
E-|-4/5-55-555--4/5-55-555--4/5-55-555--4/5-55-555--4/5-55-555--4/5-0-5-0-5-||


_______________________________________________________
Contribuição: Eduardo Lima(fleafieldy@hotmail.com)

Comentários 2

  • Guilherme Guilherme: Postado em 01/11/2013 22:58

    Perfeita

  • Lucas Lucas: Postado em 14/01/2013 17:22

    cifra ótima!!!!

Composição: Tio Jovem / Zenilton
Esse não é o compositor? Avise-nos.
publicidade
fechar