Dani California

Red Hot Chili Peppers

 Red Hot Chili Peppers
Tom: C
		
Introdução: Am  G  Dm  Am
            Am  G  Dm  Am


   Am       G        Dm       Am
E|-----5--x-----3--x--------x------5--x-----|
B|-----5--x-----3--x-----6--x------5--x-----|
G|-----5--x-----4--x-----7--x------5--x-----|
D|-------------------7-7-7------------------|
A|-7-7------5-5------5-5------7-7-----------|
E|-5-5------3-3---------------5-5-----------|



Primeira Estrofe:

Am                       G
   Getting born in the State of Mississippi
 Dm
Papa was a copper
     Am
And mama was a hippie
             G
In Alabama she would swing a hammer
  Dm                           Am
Price you gotta pay when you break the panorama


Segunda Estrofe:


   Am                G
E|------------------------------------------|
B|------------------------------------------|
G|--------5h7p5--------------4h5p4----------|
D|-7----7--------7\----5---5-------5--------|
A|----x--------------x---x------------------|
E|------------------------------------------|


   Dm                Am
E|------------------------------------------|
B|----------6h8p6------------5h6p5----------|
G|----------------7----------------5--------|
D|------x-7----------x-7---7----------------|
A|-3/5---------------x---x------------------|
E|------------------------------------------|


   Am                G
E|------------------------------------------|
B|------------------------------------------|
G|--------5h7p5--------------4h5p4----------|
D|-7----7--------7\----5---5-------5--------|
A|----x--------------x---x------------------|
E|------------------------------------------|


   Dm                Am
E|------------------------------------------|
B|----------6h8p6------------5h6p5----------|
G|----------------7----------5--------------|
D|------x-7----------x-7---7----------------|
A|-3/5---------------x---x------------------|
E|------------------------------------------|


Am             G
   She never knew that there was
Dm            Am
Anything more    than poor
             G
What in the world does your
 Dm          Am
Company take    me for?


Terceira Estrofe:

  Am             G
Black bandana, sweet Louisiana
 Dm                     Am
Robbin' a bank in the state of Indiana
                 G
She’s a runner, rebel and a stunner
Dm
On her merry way sayin’
 Am
Baby, watcha gonna?


Quarta Estrofe:


   Am                G
E|------------------------------------------|
B|------------------------------------------|
G|--------5h7p5--------------4h5p4----------|
D|-7----7--------7\----5---5-------5--------|
A|----x--------------x---x------------------|
E|------------------------------------------|


   Dm                Am
E|------------------------------------------|
B|----------6h8p6------------5h6p5----------|
G|----------------7----------------5--------|
D|------x-7----------x-7---7----------------|
A|-3/5---------------x---x------------------|
E|------------------------------------------|


   Am                G
E|------------------------------------------|
B|------------------------------------------|
G|--------5h7p5--------------4h5p4----------|
D|-7----7--------7\----5---5-------5--------|
A|----x--------------x---x------------------|
E|------------------------------------------|


   Dm
E|------------------------------------------|
B|-6--6--6-6-6-6-6--6-6-6-6-6---------------|
G|-7--7--7-7-7-7-7--7-7-7-7-7---------------|
D|-7--7--7-7-7-7-7--7-7-7-7-7---------------|
A|-5--5--5-5-5-5-5--5-5-5-5-5---------------|
E|------------------------------------------|

   ↓  ↓  ↑ ↓ ↑ ↓ ↓  ↑ ↓ ↑ ↓ ↓


E|------------------------------------------|
B|-6-6-6-6-6-6-6-6-6------------------------|
G|-7-7-7-7-7-7-7-7-7------------------------|
D|-7-7-7-7-7-7-7-7-7------------------------|
A|-5-5-5-5-5-5-5-5-5------------------------|
E|------------------------------------------|

   ↑ ↓ ↑ ↓ ↑ ↓ ↑ ↓ ↑

Am                   G
   Looking down the barrel of a
 Dm        Am
Hot metal forty five
              G         Dm
Just another way to survive


Primeiro Refrão:


   F5               C5          D5
E|------------------------------------------|
B|------------------------------------------|
G|------------------5--5--x-x-5/7-----------|
D|-3--3--3--3-3-x-x-5--5--x-x-5/7-----------|
A|-3--3--3--3-3-x-x-3--3--x-x-3/5-----------|
E|-1--1--1--1-1-x-x-------------------------|

   ↓  ↓  ↓  ↓ ↑ ↓ ↑ ↓  ↓  ↓ ↑ ↓


                   G5
E|------------------------------------------|
B|------------------------------------------|
G|-7-7-7--7-7\------------------------------|
D|-7-7-7--7-7\---x-5--5--x-x----------------|
A|-5-5-5--5-5\---x-5--5--x-x----------------|
E|---------------x-3--3--x-x----------------|

   ↓ ↑ ↓  ↓ ↑    ↑ ↓  ↓  ↓ ↑


   F5               C5          D5
E|------------------------------------------|
B|------------------------------------------|
G|------------------5--5--x-x-5/7-----------|
D|-3--3--3--3-3-x-x-5--5--x-x-5/7-----------|
A|-3--3--3--3-3-x-x-3--3--x-x-3/5-----------|
E|-1--1--1--1-1-x-x-------------------------|

   ↓  ↓  ↓  ↓ ↑ ↓ ↑ ↓  ↓  ↓ ↑ ↓


                   G5
E|------------------------------------------|
B|------------------------------------------|
G|-7-7-7--7-7\------------------------------|
D|-7-7-7--7-7\---x-5--5--x-x----------------|
A|-5-5-5--5-5\---x-5--5--x-x----------------|
E|---------------x-3--3--x-x----------------|

   ↓ ↑ ↓  ↓ ↑    ↑ ↓  ↓  ↓ ↑


   F5               C5          D5
E|------------------------------------------|
B|------------------------------------------|
G|------------------5--5--x-x-5/7-----------|
D|-3--3--3--3-3-x-x-5--5--x-x-5/7-----------|
A|-3--3--3--3-3-x-x-3--3--x-x-3/5-----------|
E|-1--1--1--1-1-x-x-------------------------|

   ↓  ↓  ↓  ↓ ↑ ↓ ↑ ↓  ↓  ↓ ↑ ↓


                   G5
E|------------------------------------------|
B|------------------------------------------|
G|-7-7-7--7-7\------------------------------|
D|-7-7-7--7-7\---x-5--5--x-x----------------|
A|-5-5-5--5-5\---x-5--5--x-x----------------|
E|---------------x-3--3--x-x----------------|

   ↓ ↑ ↓  ↓ ↑    ↑ ↓  ↓  ↓ ↑


   F5               C5          D5
E|------------------------------------------|
B|------------------------------------------|
G|------------------5--5--x-x-5/7-----------|
D|-3--3--3--3-3-x-x-5--5--x-x-5/7-----------|
A|-3--3--3--3-3-x-x-3--3--x-x-3/5-----------|
E|-1--1--1--1-1-x-x-------------------------|

   ↓  ↓  ↓  ↓ ↑ ↓ ↑ ↓  ↓  ↓ ↑ ↓


   D5
E|------------------------------------------|
B|------------------------------------------|
G|-7-7-7---x-7-x-7-7---x-7-x-7-7---x-7-x-7-7|
D|-7-7-7---x-7-x-7-7---x-7-x-7-7---x-7-x-7-7|
A|-5-5-5---x-5-x-5-5---x-5-x-5-5---x-5-x-5-5|
E|------------------------------------------|

   ↓ ↑ ↓   ↓ ↑ ↓ ↑ ↓   ↓ ↑ ↓ ↑ ↓   ↓ ↑ ↓ ↑ ↓

     F5          C5  D5
California, rest in peace
   G5   F5      C5  D5
Simul__taneous re__lease
   G5  F5              C5   D5
Cali__fornia, show me your teeth
       G5  F5            C5    D5
She’s my priestess, I'm your priest


Solo 1: Am  G  Dm  Am
        Am  G  Dm  Am

(Base)


         Am       G        Dm       Am
E|-----------5--x-----3--x--------x------5-x|
B|-----------5--x-----3--x-----6--x------5-x|
G|-----------5--x-----4--x-----7--x------5-x|
D|-------------------------7-7-7------------|
A|-------7-7------5-5------5-5------7-7-----|
E|-0-3-0-5-5------3-3---------------5-5-----|



   Am       G        Dm       Am
E|-----5--x-----3--x--------x---------------|
B|-----5--x-----3--x-----6--x---------------|
G|-----5--x-----4--x-----7--x------7b9r7-5--|
D|-------------------7-7-7------------------|
A|-7-7------5-5------5-5------7-7-----------|
E|-5-5------3-3---------------5-5-----------|


(Guitarra 1)


E|-8-------7-------10------12-------------------------|
B|-11b13~--10b12~--13b15~--15b17~---------------------|
G|----------------------------------------------------|
D|----------------------------------------------------|
A|----------------------------------------------------|
E|----------------------------------------------------|



E|-8-------7-------10------17-------------------------|
B|-11b13~--10b12~--13b15~--20b22~---------------------|
G|----------------------------------------------------|
D|----------------------------------------------------|
A|----------------------------------------------------|
E|----------------------------------------------------|


(Guitarra 2)


E|----------------------------------------------------|
B|-5-----3-----6------10------5-----3-----6------10---|
G|-7b9~--5b7~--8b10~--12b14~--7b9~--5b7~--8b10~--12b14|
D|----------------------------------------------------|
A|----------------------------------------------------|
E|----------------------------------------------------|



Quinta Estrofe:


E|---------------------10-----------------------------|
B|-10--------8---------13b15~----10-------------------|
G|-12b14~----10b12~--------------12b14~---------------|  (2x)
D|----------------------------------------------------|
A|----------------------------------------------------|
E|----------------------------------------------------|


Am                 G
   She’s a lover, baby and a fighter
  Dm
Shoulda seen it comin’ when
    Am
It got a little brighter
                  G
With a name like Dani California
  Dm
The day was gonna come
     Am
When I was gonna mourn ya


Sexta Estrofe:

Am           G
   A little loaded she was
  Dm       Am
Stealin’ another breath
           G       Dm
I love my baby to death


Segundo Refrão:

     F5          C5  D5
California, rest in peace
   G5   F5      C5  D5
Simul__taneous re__lease
   G5  F5              C5   D5
Cali__fornia, show me your teeth
       G5  F5            C5    D5
She’s my priestess, I'm your priest

(diferença do segundo refrão - último acorde)


   D5
E|------------------------------------------|
B|------------------------------------------|
G|-7-7-7--x-7-x-7-7--x-7-x-7-7--x-7-x-7-7-7-|
D|-7-7-7--x-7-x-7-7--x-7-x-7-7--x-7-x-7-7-7-|
A|-5-5-5--x-5-x-5-5--x-5-x-5-5--x-5-x-5-5-5-|
E|------------------------------------------|

   ↓ ↑ ↓  ↓ ↑ ↓ ↑ ↓  ↓ ↑ ↓ ↑ ↓  ↓ ↑ ↓ ↑ ↓ ↓


Ponte:

(Base)


   Bm                G          F#
E|-----7--x-----7--x-------7--x-------------|
B|-----7--x-----7--x-------8--x-------------|
G|-----7--x-----7--x-------7--x-6-6--7-6~---|  (3x)
D|-------------------9--9-------8-8---------|
A|-9-9------9-9------10-10------9-9--5-4~---|
E|-7-7------7-7-----------------------------|



   Bm
E|-----7--x-----7--x-----7--x---------------|
B|-----7--x-----7--x-----7--x---------------|
G|-----7--x-----7--x-----7--x-----------~---|
D|------------------------------------------|
A|-9-9------9-9------9-9-----------5--7-----|
E|-7-7------7-7------7-7-------/7--------7\-|


(Guitarra 1)


E|----------------------------------------------------|
B|-12--------12------10------12-----------------------|
G|-14b16~----14b16~--12b14~--14b16~~------------------|
D|----------------------------------------------------|
A|----------------------------------------------------|
E|----------------------------------------------------|


Bm              G
   Who knew the other side of you?
Bm               G
   Who knew what others died to prove?
Bm              G
   Too true to say goodbye to you
Bm
   Too true to say, say, say


Sétima Estrofe:


E|----------------------------------------------------|
B|-5-------3-------6--------5-------------------------|
G|-7b9~----5b7~----8b10~----7b9~----------------------|
D|----------------------------------------------------|
A|----------------------------------------------------|
E|----------------------------------------------------|



E|----------------------------------------------------|
B|-5-------3-------6--------10------------------------|
G|-7b9~----5b7~----8b10~----12b14~--------------------|
D|----------------------------------------------------|
A|----------------------------------------------------|
E|----------------------------------------------------|


Am                  G
   Push the fader, gifted animator
    Dm                   Am
One    for the now and eleven for the later
              G
Never made it up to Minnesota
 Dm                     Am
North Dakota man was a gunnin'

For the quota


Oitava Estrofe:

Am              G
   Down in the badlands
         Dm         Am
She was savin’ the best for last
         G            Dm
It only hurts when I laugh
          E7
Gone too fast

(diferença da base na oitava estrofe - últimos acordes)


   Dm
E|------------------------------------------|
B|-6--6--6-6-6-6-6--6-6-6-6-6--6-6-6-6-6-6-6|
G|-7--7--7-7-7-7-7--7-7-7-7-7--7-7-7-7-7-7-7|
D|-7--7--7-7-7-7-7--7-7-7-7-7--7-7-7-7-7-7-7|
A|-5--5--5-5-5-5-5--5-5-5-5-5--5-5-5-5-5-5-5|
E|------------------------------------------|

   ↓  ↓  ↑ ↓ ↑ ↓ ↓  ↑ ↓ ↑ ↓ ↓  ↑ ↓ ↑ ↓ ↓ ↓ ↑


   E7
E|-7--7--7-7-7-7-7--7-7-7-7-7---------------|
B|-9--9--9-9-9-9-9--9-9-9-9-9---------------|
G|-7--7--7-7-7-7-7--7-7-7-7-7---------------|
D|-9--9--9-9-9-9-9--9-9-9-9-9---------------|
A|-7--7--7-7-7-7-7--7-7-7-7-7---------------|
E|-0--0--0-0-0-0-0--0-0-0-0-0---------------|

   ↓  ↓  ↑ ↓ ↑ ↓ ↓  ↑ ↓ ↑ ↓ ↓


E|-7-7-7-7-7-7-7-7-7-7----------------------|
B|-9-9-9-9-9-9-9-9-9-9----------------------|
G|-7-7-7-7-7-7-7-7-7-7----------------------|
D|-9-9-9-9-9-9-9-9-9-9----------------------|
A|-7-7-7-7-7-7-7-7-7-7----------------------|
E|-0-0-0-0-0-0-0-0-0-0----------------------|

   ↓ ↑ ↓ ↑ ↓ ↑ ↓ ↑ ↓ ↑

(Guitarra 2)


E|-/17--17---17-17---17-17---17-17/19-----------------|
B|-/15--15---15-15---15-15---15-15/17-----------------|
G|----------------------------------------------------|
D|----------------------------------------------------|
A|----------------------------------------------------|
E|----------------------------------------------------|



E|-19--19---19-19--19--19--19--19---------------------|
B|-17--17---17-17--17--17--17--17---------------------|
G|----------------------------------------------------|
D|----------------------------------------------------|
A|----------------------------------------------------|
E|----------------------------------------------------|



Terceiro Refrão:

     F5          C5  D5
California, rest in peace
   G5   F5      C5  D5
Simul__taneous re__lease
   G5  F5              C5   D5
Cali__fornia, show me your teeth
       G5  F5            C5    D5
She’s my priestess, I'm your priest


Riffs do último refrão:

(Guitarra 1)


E|----------------------------------------------------|
B|----------------------------------------------------|
G|-5--5--5--5-5--5--9--9--9-5-7/10--------------------|
D|----------------------------------------------------|
A|----------------------------------------------------|
E|----------------------------------------------------|



E|----------------------------------------------------|
B|----------------------------------------------------|
G|-10-10-10--10-10--10--5/7--7--7---------------------|
D|----------------------------------------------------|
A|----------------------------------------------------|
E|----------------------------------------------------|


(Guitarra 2)


E|----------------------------------------------------|
B|-6--6--6--6-6--6--8--8--8-6-8/10--------------------|
G|----------------------------------------------------|
D|----------------------------------------------------|
A|----------------------------------------------------|
E|----------------------------------------------------|



E|----------------------------------------------------|
B|-10-10-10--10-10--10--6--6--6-----------------------|
G|----------------------------------------------------|
D|----------------------------------------------------|
A|----------------------------------------------------|
E|----------------------------------------------------|


(Guitarra 3)


E|----------------------------------------------------|
B|-13--13--13--13-13--13--17--17--17-13-15/16---------|
G|----------------------------------------------------|
D|----------------------------------------------------|
A|----------------------------------------------------|
E|----------------------------------------------------|



E|----------------------------------------------------|
B|-16-16-16--16-16--16--13/15--15--15-----------------|
G|----------------------------------------------------|
D|----------------------------------------------------|
A|----------------------------------------------------|
E|----------------------------------------------------|


     F5          C5  D5
California, rest in peace
   G5   F5      C5  D5
Simul__taneous re__lease
   G5  F5              C5   D5
Cali__fornia, show me your teeth
       G5  F5            C5    D5
She’s my priestess, I'm your priest


Solo Final:

(Parte 1)


E|----------------------------------------------------|
B|----------------------------------------------------|
G|----------10----------------------------------------|
D|------10------12~-----------------------------------|
A|-/12----------------\10p8--10p8--10p8--10p8---------|
E|---------------------------------------------10--10\|



E|----------------------------------------------------|
B|----------------------------------------------------|
G|----------------------------------------------------|
D|----------------------------------------------------|
A|----------/5~---------------------------------------|
E|-3--1h3-1-------------------------------------------|


(Parte 2)


E|----------------------------------------------------|
B|----------------------------------------------------|
G|----------10----------------------------------------|
D|------10------12~-------10----10----10----12~-------|
A|-/12----------------/12----12----12----12-----------|
E|----------------------------------------------------|



E|----------------------------------------------------|
B|-----13----15~~-------------------------------------|
G|-/14----14------------------------------------------|
D|-----------------x\---------------------------------|
A|-----------------x\---------------------------------|
E|-----------------x\---------------------------------|


(Parte 3)


E|----------------------------------------------------|
B|----------------------------------------------------|
G|----------10----------------------------------------|
D|------10------12~-----------------------------------|
A|-/12----------------\10p8--10p8--10--10p8-----------|
E|-------------------------------------------10\------|



E|----------------------------------------------------|
B|----------------------------------------------------|
G|----------------------------------------------------|
D|----------------------------------------------------|
A|----------/5~---------------------------------------|
E|-3--1h3-1-------------------------------------------|


(Parte 4)


E|----------------------------------------------------|
B|----------------------------------------------------|
G|----------10----------------------------------------|
D|------10------12~-------10----10----10----12~-------|
A|-/12----------------/12----12----12----12-----------|
E|----------------------------------------------------|



E|----------------------------------------------------|
B|-----13----15b~-----13----15-13----15-13----15-13---|
G|-/14----14-------14----14-------14-------14-------14|
D|----------------------------------------------------|
A|----------------------------------------------------|
E|----------------------------------------------------|



E|----------------------------------------------------|
B|-15-13----15-13-------------------------------------|
G|-------14-------14\---------------------------------|
D|----------------------------------------------------|
A|----------------------------------------------------|
E|----------------------------------------------------|


(Parte 5)


E|----------------------------------------------------|
B|----------------------------------------------------|
G|----------10----------------------------------------|
D|------10------12~-------10----10----10--------------|
A|-/12----------------/12----12----12-----12\10-8----8|
E|------------------------------------------------10--|



E|----------------------------------------------------|
B|----------------------------------------------------|
G|----------------------------------------------------|
D|-------10-------------------------------------------|
A|-10/12----12\10-8-----------------------------------|
E|------------------10~\------------------------------|


(Parte 6)


E|----------------------------------------------------|
B|----------------------------------------------------|
G|----------10----------------------------------------|
D|------10------12~-------10----10----10----12~-------|
A|-/12----------------/12----12----12----12-----------|
E|----------------------------------------------------|



E|----------------------------------------------------|
B|-----13----15br-------------------------------------|
G|-/14----14------------------------------------------|
D|-----------------x\---------------------------------|
A|-----------------x\---------------------------------|
E|-----------------x\---------------------------------|


(Parte 7)


E|----------------------------------------------------|
B|----------------------------------------------------|
G|----------10----------------------------------------|
D|------10------12~-----------------------------------|
A|-/12----------------\10p8--10p8--10--10p8-----------|
E|-------------------------------------------10\------|



E|----------------------------------------------------|
B|----------------------------------------------------|
G|----------------------------------------------------|
D|----------------------------------------------------|
A|----------/5~---------------------------------------|
E|-3--1h3-1-------------------------------------------|


(Parte 8)


E|----------------------------------------------------|
B|--------10-13p10-------10-13p10-------10-13p10------|
G|-12b14-----------12b14----------12b14----------12b14|
D|----------------------------------------------------|
A|----------------------------------------------------|
E|----------------------------------------------------|



E|----------------------------------------------------|
B|-10-13p10-------10-13p10-------10-13p10-------------|
G|----------12b14----------12b14----------12b14-------|
D|----------------------------------------------------|
A|----------------------------------------------------|
E|----------------------------------------------------|



E|----------------------------------------------------|
B|-10-13p10-------10-13p10-------10-13p10-------10h13-|
G|----------12b14----------12b14----------12b14-------|
D|----------------------------------------------------|
A|----------------------------------------------------|
E|----------------------------------------------------|


(Parte 9)


E|-10-13-15...---10-15...---10-15...--10-15...--------|
B|----------------------------------------------------|
G|----------------------------------------------------|
D|----------------------------------------------------|
A|----------------------------------------------------|
E|----------------------------------------------------|



E|-10-15...-------------------------------------------|
B|----------10-13-15...---10-15...---10-15...---------|
G|----------------------------------------------------|
D|----------------------------------------------------|
A|----------------------------------------------------|
E|----------------------------------------------------|



E|----------------------------------------------------|
B|----------------------------------------------------|
G|-10-12-14-10-12-14...--------------12b14r12p10------|
D|-----------------------------------------------12~~-|
A|----------------------------------------------------|
E|----------------------------------------------------|
Texto Colunas
Alterar tom ½ tom ½ tom
afinação acordes na letra esconder tabs mais »

Comentários 121

  • Heloísa Heloísa : Postado em 14/06/2014 13:48

    que dlç

  • guilherme guilherme : Postado em 14/06/2014 13:32

    o tom é C mesmo?

  • acte acte: Postado em 10/06/2014 19:09

    muito bacana essa video aula, cifraclub como sempre de parabens!

  • Matheus Matheus: Postado em 09/06/2014 13:44

    Ensina Civil War do Guns quero muito aprender essa musica

  • Rossano Rossano: Postado em 07/06/2014 19:32

    Faz uma aula ensinando a musica The Jack do Ac/Dc

  • Luis Felipe Luis Felipe: Postado em 07/06/2014 11:45

    agora falta fazer um ao vivo RHCP

  • Luis Felipe Luis Felipe: Postado em 07/06/2014 10:41

    Aleluia saiu a aula!!!!

  • Gustavo Gustavo: Postado em 08/05/2014 18:07

    facil de aprender, só ver as tabs e ver covers dos caras no you tube ;)

  • lukewilkshire.lukwill lukewilkshire.lukwill: Postado em 04/05/2014 19:48

    crunch no overdrive

  • Felipe Felipe: Postado em 30/04/2014 15:14

    cade a video aula musica boa q tinha q ter n tem agora lepo lepo tem ne cifras club

Exibindo 10 de 121 comentários Mostrar mais ver todos »
Composição: Anthony Kiedis / Chad Smith / Dominguinhos / Felix Rodriguez / Flea / John Frusciante / Ricardo Augusto / Vincent Ford
Esse não é o compositor? Avise-nos.
Contribuição: Bilo Correções: v.inny , lukewilkshire.lukwill e mais 20 »
  1. Domingo de Manhã - Marcos e Belutti Manteve-se 96.264 exibições
  2. Até Você Voltar - Henrique e Juliano Manteve-se 55.457 exibições
  3. Pra Você - Onze:20 Manteve-se 48.991 exibições
  4. Recaídas - Henrique e Juliano Manteve-se 41.756 exibições
  5. Logo Eu - Jorge e Mateus Manteve-se 40.010 exibições
  6. Evidências - Chitãozinho & Xororó Manteve-se 35.919 exibições
  7. Só Os Loucos Sabem - Charlie Brown Jr. Manteve-se 31.813 exibições
  8. Cuida Bem Dela - Henrique e Juliano Manteve-se 31.163 exibições
  9. Pais e Filhos - Legião Urbana Manteve-se 29.531 exibições
  10. Give Me Love - Ed Sheeran Manteve-se 29.506 exibições
  1. Jorge e Mateus- Manteve-se 251.571 exibições
  2. Legião Urbana- Manteve-se 211.240 exibições
  3. Henrique e Juliano- Manteve-se 192.369 exibições
  4. Charlie Brown Jr.- Manteve-se 151.943 exibições
  5. Bruno e Marrone- Manteve-se 133.779 exibições
  6. Fernandinho- Manteve-se 118.729 exibições
  7. Marcos e Belutti- Manteve-se 117.826 exibições
  8. Luan Santana- Manteve-se 111.298 exibições
  9. Thalles Roberto- Manteve-se 93.703 exibições
  10. Victor e Leo- Manteve-se 91.274 exibições
Exibir acordes »

Cifras e tabs

Fórum Cifra Club

Aprenda

Cifra Club News

Mais Serviços Cifra Club ID

Studio Sol

©1996 - 2014 Cifra Club · o primeiro, maior e mais acessado do Brasil · 338 mil músicas · 6.2 milhões pessoas cadastradas

publicidade
fechar