Scar Tissue

Red Hot Chili Peppers

 Red Hot Chili Peppers
Tom: C
		

Intro: F  Dm
E|---------------------------------------------------
B|----10---10---10---10--5--5/6--6----6---6---6\5----
G|---------------------------------------------------
D|---------------------------------------------------
A|-8-----8----8----8-----3--3/5-----5---5---5-----3--
E|---------------------------------------------------



E|---------------------------------------------------
B|----10---10---10---10--8--5/6------8p6-8p6---------
G|---------------------------------------------------
D|---------------------------------------------------
A|-8-----8----8----8--------3/5----------------------
E|---------------------------------------------------



Primeira Parte:

   F                        Dm
E|---------------------------------------------------
B|----10---10---10---10--5--5/6--6----6---6---6\5----
G|---------------------------------------------------
D|---------------------------------------------------
A|-8-----8----8----8-----3--3/5-----5---5---5-----3--
E|---------------------------------------------------


   F                        Dm
E|-------------------8-------------------------------
B|----10---10---10-----10-8-8/10-10---10--8--6--5----
G|---------------------------------------------------
D|--------------------------0-------0----------------
A|-8-----8----8----8---------------------------------
E|---------------------------------------------------



F
  Scar tissue that I wished you saw
Dm
  Sarcastic Mister Know-it-All
F                                     Dm
  Close your eyes and I'll kiss you 'cause

  With the birds I'll share

F
  With the birds I'll share
    ( C )  Dm      ( C )
This lo___nely view
F
  With the birds I'll share
    ( C )  Dm
This lo___nely view

   F                        Dm
E|---------------------------------------------------
B|----10---10---10---10--5--5/6--6----6---6---6\5----
G|---------------------------------------------------
D|---------------------------------------------------
A|-8-----8----8----8-----3--3/5-----5---5---5-----3--
E|---------------------------------------------------


   F                        Dm
E|------------------10-8--------------13--12--10--8--
B|---10---10---10--------10-8/10-10------------------
G|---------------------------------------------------
D|--------------------------0-------0----------------
A|-8----8----8----8----------------------------------
E|---------------------------------------------------



F
  Push me up against the wall
 Dm
Young Kentucky Girl in a push-up bra
F
  Fallin' all over myself
    Dm
To lick your heart and taste you health 'cause

Primeiro Refrão:
F
  With the birds I'll share
    ( C )  Dm       ( C )
This lo___nely view
F
  With the birds I'll share
    ( C )  Dm       ( C )
This lo___nely view
F
  With the birds I'll share
    ( C )  Dm
This lo___nely view
Primeiro Solo:

E|---------------------------------------------------
B|-13\--10~~\----10\--8~~-8/--10~~--10/-12/-13~~-----
G|---------------------------------------------------
D|---------------------------------------------------
A|---------------------------------------------------
E|---------------------------------------------------



Segunda Parte:

   F                        Dm
E|---------------------------------------------------
B|----10---10---10---10--5--5/6--6----6---6-8p6-8p6--
G|---------------------------------------------------
D|---------------------------------------------------
A|-8-----8----8----8-----3--3/5-----5---5------------
E|---------------------------------------------------


   F                        Dm
E|-------------------8-------------------------------
B|----10---10---10-----10-8-8/10-10---12--13--12--10-
G|---------------------------------------------------
D|--------------------------0-------0----------------
A|-8-----8----8----8---------------------------------
E|---------------------------------------------------



F
  Blood loss in a bathroom stall
Dm
  Southern girl with a scarlet drawl
F
  Wave good-bye to ma and pa 'cause
Dm
  With the birds I'll share

F
  With the birds I'll share
    ( C )  Dm       ( C )
This lo___nely view
F
  With the birds I'll share
    ( C )  Dm
This lo___nely view

  F                        Dm
E|---------------------------------------------------
B|----10---10---10---10--5--5/6--6----6---6---6\5----
G|---------------------------------------------------
D|---------------------------------------------------
A|-8-----8----8----8-----3--3/5-----5---5---5-----3--
E|---------------------------------------------------


   F                        Dm
E|-------------------8----------------12--10--8------
B|----10---10---10-----10-8-8/10-10-------------10---
G|---------------------------------------------------
D|--------------------------0-------0----------------
A|-8-----8----8----8---------------------------------
E|---------------------------------------------------



F
  Saw spoken with a broken jaw
  Dm
Step outside but not to brawl in
F
  Autumn's sweet we call it fall
      Dm
I'll make it to the moon if I have to crawl and

Segundo Refrão:
F
  With the birds I'll share
    ( C )  Dm       ( C )
This lo___nely view
F
  With the birds I'll share
    ( C )  Dm       ( C )
This lo___nely view
F
  With the birds I'll share
    ( C )  Dm
This lo___nely view
Segundo Solo:

E|---------------------------------------------------
B|-13/15~~--15\-13\-10~~---10\-8~~-13~~\-10~~--------
G|---------------------------------------------------
D|---------------------------------------------------
A|---------------------------------------------------
E|---------------------------------------------------



E|---------------------------------------------------
B|-13/15~~--17--13\-10~~---10/13\10--8~~-13\-10~~----
G|---------------------------------------------------
D|---------------------------------------------------
A|---------------------------------------------------
E|---------------------------------------------------



E|-10/--12/--13~~------------------------------------
B|---------------------------------------------------
G|---------------------------------------------------
D|---------------------------------------------------
A|---------------------------------------------------
E|---------------------------------------------------



Terceira Parte:

   F                        Dm
E|---------------------------------------------------
B|----10---10---10---10--5--5/6--10---10---10---10---
G|---------------------------------------------------
D|---------------------------------------------------
A|-8-----8----8----8-----3--3/5-----8----8----8------
E|---------------------------------------------------


   F                           Dm
E|----------------------8----------------------------
B|-8/10--10---10---10-----10-8-8/10-10---10--8--6--5-
G|---------------------------------------------------
D|-----------------------------0-------0-------------
A|----------8----8----8------------------------------
E|---------------------------------------------------



F
  Scar tissue that I wished you saw
Dm
  Sarcastic mister know it all
F
  Close your eyes and I'll kiss you 'cause
Dm
 With the birds I'll share

Terceiro Refrão:
F
  With the birds I'll share
    ( C )  Dm       ( C )
This lo___nely view
F
  With the birds I'll share
    ( C )  Dm       ( C )
This lo___nely view
F
  With the birds I'll share
    ( C )  Dm
This lo___nely view
Terceiro Solo / Final:


E|-/17~~---17\-15~~--15/17\-12~~---------------------
B|-----------------------------~--17/18\-15~~\-------
G|---------------------------------------------------
D|---------------------------------------------------
A|---------------------------------------------------
E|---------------------------------------------------



E|---------------------------------------------------
B|-13/15-15\13-13/15-15~~--15\--13\10--10/13-8~~-----
G|---------------------------------------------------
D|---------------------------------------------------
A|---------------------------------------------------
E|---------------------------------------------------



E|---------------------------------------------------
B|-10/13\-10~~---------------------------------------
G|--------------7/9\7--/14~~-14~--14~--14~---7/9\7---
D|---------------------------------------------------
A|---------------------------------------------------
E|---------------------------------------------------



E|---------------------------------------------------
B|---------------------------------------------------
G|-7/9-5~~--5/7--2~~~--------------------------------
D|---------------------------------------------------
A|---------------------------------------------------
E|---------------------------------------------------



E|---------------------------------------------------
B|-8/10~~---18\17-17--13~--13/15\13-10~-10/13\8/10~~-
G|---------------------------------------------------
D|---------------------------------------------------
A|---------------------------------------------------
E|---------------------------------------------------

Comentários 139

Exibindo 10 de 139 comentários Mostrar mais ver todos »
Composição: Anthony Kiedis / Chad Smith / Dominguinhos / Felix Rodriguez / Flea / John Frusciante / Ricardo Augusto / Vincent Ford
Esse não é o compositor? Avise-nos.
Contribuição: Lucas Correções: v.inny , xavier12 e mais 19 »
Exibir acordes »
publicidade
fechar