Halloween

Temas de Filmes

 Temas de Filmes Compositor: Adler Leite
Tom: E
		

E|-15----------15----------16-----15---------15----------------
B|-----13--13------13--13-----13-----13--13-----13--13---------
G|-------------------------------------------------------------  (2x)
D|-------------------------------------------------------------
A|-------------------------------------------------------------
E|-------------------------------------------------------------



E|-12----------12----------11------12----------12--------------
B|-----10--10------10--10------10------10--10------10--10------
G|-------------------------------------------------------------  (2x)
D|-------------------------------------------------------------
A|-------------------------------------------------------------
E|--------------------------------------------------------------

8.388 exibições

Comentários 1

  • Tuuh_ Tuuh_: Postado em 28/02/2011 20:11

    fácil :D

Exibir acordes »
publicidade
fechar