A Véia Debaixo da Cama

Temas Infantis

 Temas Infantis
Tom: A
		

G|---------------------------------------------|
D|-----------0-2-2---2-3-3-3-2-2---------------|
A|---3-3-3-3---------------------3-3-----------|
E|-3-------------------------------------------|



G|---------------------------------------------|
D|-----------0-2-2----2-2-2-2-2----------------|
A|---3-3-3-3--------3--------------------3-3-3-|
E|-3-----------------------------3-3-3-3-------|



G|------------------2-2-------------|
D|-2-2-2-2-2-3-5-5------3-3-2-2-----|
A|------------------------------3-3-|
E|----------------------------------|
13.406 exibições

Comentários 0

Consegui tocarAinda não conseguiram tocar essa música. Seja o primeiro!
    Não consegui tocar
    Exibir acordes »
    publicidade
    fechar