Água no leite

Teodoro e Sampaio

 Teodoro e Sampaio
Tom: F
		
(solo 1)

              C                 F              C                 F   C       F
E|---------13-13-12--15--------------14-------------------12-8-6-4--11-8-6-4---------|
B|-------------------17-17-15-15\13--15--13---------------13-9-7-5--12-9-7-5---------|
G|-13--16------------------------------------14/17--15-------------------------------|
D|-----------------------------------------------------------------------------------|
A|-----------------------------------------------------------------------------------|
E|-----------------------------------------------------------------------------------|


(solo 2)

       C                   F                C              F   C        F
E|-4-7-12-12\11-----11-11--9--9\7-------9-7-6-6-7---11-8-6-4---11-8-6-4--------------|
B|-5-9-14-14\12-----12-12-10-10\7------10-9-7-7-9---12-9-7-5---12-9-7-5--------------|
G|-----------------------------------------------------------------------------------|
D|-----------------------------------------------------------------------------------|
A|-----------------------------------------------------------------------------------|
E|-----------------------------------------------------------------------------------|

(riff 1)


E|-11-10-6---|
B|-12-9--7---|
G|-----------|
D|-----------|
A|-----------|
E|-----------|

(riff 2)


E|-2-4/5-----|
B|-3-5/7-----|
G|-----------|
D|-----------|
A|-----------|
E|-----------|


F	                                C
Um leiteiro ganancioso enganava a freguesia
					  F
Misturava água no leite e para o povo vendia
				       C
Enriquecendo depressa dizia fazendo graça
						  F
Não há nada neste mundo que o homem queira e não faça
		       C		      Bb
Enquanto eu puxar no balde água do poço a vontade
      C	             F
Não falta leite na praça

(riff 1)

(solo 1)

F			                 C
O dinheiro do seu roubo era num saco guardado
					 F
E muito bem escondido para não ser encontrado
				           C
Mas ele tinha um macaco que observava a trapaça
				    F
Parece que ele dizia espiando da vidraça
		  C		         Bb
Eu estou envergonhado por saber que no passado
     C	             F
Nós fomos da mesma raça

(riff 2)

(solo 2) 

F				      C
Mas um dia o macaco escondido lhe seguiu
					    F
Pegou o saco de dinheiro e jogou dentro do rio
				      C
Voltou denovo pro mato e pensando consigo
				       F
Tenho vergonha do homem por parecer comigo
		     C		           Bb
O homem é bicho tratante e vê no seu semelhante
   C	        F
O seu maior inimigo

(riff 1)

(solo 1)

F				          C
Leiteiro desesperado dentro do rio se atirou
					   F
Mas do maldito dinheiro nem um centavo salvou
				          C
Sentou na beira do rio e chorando assim falou
				           F
Quis ficar rico depressa e mais pobre hoje sou
 		   C		        Bb
Que destino foi o meu tudo que a água me deu
    C	        F
A mesma água levou

(riff 2)

(solo 2)
63.901 exibições

Comentários 0

Composição: (José Fortuna/Paraíso)
Esse não é o compositor? Avise-nos.
Contribuição: gustavoatilla Correções: danilo e mais 2 »
Consegui tocarAinda não conseguiram tocar essa música. Seja o primeiro!
    Não consegui tocar
    Exibir acordes »
    publicidade
    fechar