Deus da Minha Vida

Thalles Roberto

 Thalles Roberto
Intro Parte 1: 
G|----------------------------|
D|----------------------------|
A|-3-5-3-3-3-5-3-5-333-5------|
E|----------------------------|

Intro Parte 2: 2x
G|------------5-----3h5r3-2-----5------3h5r3-2------|
D|----------7---7-------------7---7-----------------|
A|---------5------5---------5-------5---------------|
E|--------------------------------------------------|


Estrofe Vai ser Dividida por nós em duas Partes A Primeira e a Parte q Ele Canta: Deus Meu. Até : Tudo, Razão de Tudo
G|--------------------------------------------------------------------| 
D|--------------------------------------------------------------------| 
A|-3-5-3-5--3-5-1---3-5-3-5--3-5-1------------------------------------|
E|--------------------------------------------------------------------| 

Segunda Parte é a que ele canta : Deus Meu , Até o  Final 
G|------------5-----3h5r3-2-----5------3h5r3-2------|
D|----------7---7-------------7---7-----------------|
A|---------5------5---------5-------5---------------|
E|--------------------------------------------------|

Pré-Refrão 2x
G|--------------------|   (Quando Ele Canta: Eu Presciso no Pré-refrão Iremos Fazer a nota Bb)
D|----------3---------| 
A|--5-3-5-5-----------| 
E|------------5-3-----|

Refrão:
G|------------------------------------------------------------|
D|------------------------------------------------------------| 
A|-1-x-3-3-x--5----1-x-3-3-x--5----1-x-3-3-x--5---1-1-1-1-1-x-|
E|------------------------------------------------------------|

Comentários (22)

  • thailson thailson: Postado em 14/04/2014 - 18:27

    vídeo aula home do céu

  • Janaelson Janaelson: Postado em 17/12/2013 15:09

    vídeo aula \o/

  • patrtick patrtick: Postado em 08/10/2013 17:43

    video aula

  • Pedro Pedro: Postado em 31/08/2013 14:09

    aê galera! pra quem quer video aula, procura no youtube pelas aulas do Elizeu Bass... ele ensina mais fácil que a tab acima.

  • Vinícius Vinícius : Postado em 29/08/2013 13:59

    Video aula pra contra-baixo

  • matheusmfsc matheusmfsc: Postado em 11/08/2013 16:26

    eu toco um pouco diferente
    D D D C A
    INICIO
    D C D C C D G
    MEIO
    Bb Bb CC D
    FIM
    TUDO DNV

  • Guilherme Guilherme: Postado em 05/08/2013 21:48

    VIdeo AULA

  • Lucas Lucas: Postado em 31/05/2013 20:16

    video aula véii

  • davidson.rodrigues.16 davidson.rodrigues.16: Postado em 04/02/2013 00:25

    Video aula

  • guitaheroh guitaheroh: Postado em 18/01/2013 10:38

    Videoo Aula VEii

Exibindo 10 de 22 comentários Mostrar mais ver todos »
Composição: Thalles Roberto
Esse não é o compositor? Avise-nos.
Contribuição: bass91 Correções: thailson , Thayllon e mais 4 »
  1. Tudo Que Você Quiser - Luan Santana Manteve-se 6.037 exibições
  2. Lepo Lepo - Psirico Manteve-se 4.468 exibições
  3. Mozão - Lucas Lucco Manteve-se 4.227 exibições
  4. Logo Eu - Jorge e Mateus Manteve-se 3.853 exibições
  5. Gaveta - Fernando e Sorocaba Manteve-se 3.342 exibições
  6. Pra Você - Onze:20 Manteve-se 3.171 exibições
  7. Só Os Loucos Sabem - Charlie Brown Jr. Manteve-se 3.013 exibições
  8. Tempo Perdido - Legião Urbana Manteve-se 2.451 exibições
  9. Fui Fiel - Gusttavo Lima Manteve-se 2.434 exibições
  10. Na Linha do Tempo - Victor e Leo Manteve-se 2.183 exibições
  1. Jorge e Mateus- Manteve-se 22.974 exibições
  2. Legião Urbana- Manteve-se 20.295 exibições
  3. Luan Santana- Manteve-se 17.553 exibições
  4. Charlie Brown Jr.- Manteve-se 17.249 exibições
  5. Fernandinho- Manteve-se 14.873 exibições
  6. Thalles Roberto- Manteve-se 11.307 exibições
  7. Católicas- Manteve-se 10.786 exibições
  8. Victor e Leo- Manteve-se 10.519 exibições
  9. Gusttavo Lima- Manteve-se 10.295 exibições
  10. Aline Barros- Manteve-se 10.226 exibições

Cifras e tabs

Fórum Cifra Club

Aprenda

Cifra Club News

Mais Serviços Cifra Club ID

Studio Sol

©1996 - 2014 Cifra Club · o primeiro, maior e mais acessado do Brasil · 329 mil músicas · 5.9 milhões pessoas cadastradas

publicidade
fechar