Seven Nation Army

The White Stripes

 The White Stripes
Tom: G
		
Riff 1:


E|-------------------------------------------------|
B|-------------------------------------------------|
G|-------------------------------------------------|
D|-------------------------------------------------|
A|----7--7-10-7-5-3-2--7--7-10-7-5-3-5-3-2---------|
E|-------------------------------------------------|


Riff 2:


E|---------------------------------------------|
B|---------------------------------------------|
G|---------------------------------------------|
D|---------------------------------------------|
A|----5-5-5-5-5-5-5-5-7-7-7-7-7-7-7-7----------|
E|----3-3-3-3-3-3-3-3-5-5-5-5-5-5-5-5----------|


Riff 3:


E|-----------------------------------------------------------|
B|-----------------------------------------------------------|
G|---9--9-12-9-7-5-4~----9--9-12-9-7-5\9/5-4-----------------|
D|---9--9-12-9-7-5-4~----9--9-12-9-7-5\9/5-4-----------------|
A|---7--7-10-7-5-3-2~----7--7-10-7-5-3\7/3-2-----------------|
E|-----------------------------------------------------------|


Solo:



E|--12--12/14--12--12--15b--14------12--12--15--17--15--15--15/17--15--14------------|
B|-----------------------------------------------------------------------------------|
G|-----------------------------------------------------------------------------------|
D|-----------------------------------------------------------------------------------|
A|-----------------------------------------------------------------------------------|
E|-----------------------------------------------------------------------------------|




E|--12--12/14--12--12--15b--15-|--12--12/14--12--12/14--12---------33333333-55555555-|
B|------------------------------|---------------------------13--12-------------------|
G|------------------------------|----------------------------------------------------|
D|------------------------------|----------------------------------------------------|
A|------------------------------|----------------------------------------------------|
E|------------------------------|----------------------------------------------------|



E|--------------|
B|--------------|
G|------9~~~~---|
D|------9~~~~---|
A|--0---7~~~~---|
E|--------------|


(Riff 1 - 4x)

          (Riff 1)
I'm gonna fight em' off.
               (Riff 1)
A seven nation army couldn't hold me back.
              (Riff 1)
They're gonna rip it off.
             (Riff 1)
Takin' their time right behind my back.
        (Riff 1)
And i'm talkin to myself at night, because i cant forget.
(Riff 1)                                          (Riff 1)
Back and forth through my mind behind a cigarette
      (Riff 2)
And a message comin' from my eyes, says leave it alone.

(Riff 3 - 4x)

(Riff 2 - 1x)

(Riff 1 - 4x)

           (Riff 1)
Dont wanna hear about it.
              (Riff 1)
Every single ones got a story to tell.
         (Riff 1)
Everyone knows about it.
                  (Riff 1)
From the queen of england to the hounds of hell.
         (Riff 1)
And if i catch you comin back my way, i'm gonna serve it to you.
     (Riff 1)                                              (Riff 1)
And that ain't what you want to hear, but thats what i'll do.
      (Riff 2)
And a feelin' comin' from my bones, says find a home.

Solo:



E|--12--12/14--12--12--15b--14------12--12--15--17--15--15--15/17--15--14------------|
B|-----------------------------------------------------------------------------------|
G|-----------------------------------------------------------------------------------|
D|-----------------------------------------------------------------------------------|
A|-----------------------------------------------------------------------------------|
E|-----------------------------------------------------------------------------------|




E|--12--12/14--12--12--15b--15-|--12--12/14--12--12/14--12---------33333333-55555555-|
B|------------------------------|---------------------------13--12-------------------|
G|------------------------------|----------------------------------------------------|
D|------------------------------|----------------------------------------------------|
A|------------------------------|----------------------------------------------------|
E|------------------------------|----------------------------------------------------|


(Riff 1 - 4x)

            (Riff 1)
Im goin' to witchitaw.
              (Riff 1)
Far from this opera forever more.
         (Riff 1)
Im gonna work the straw (?).
               (Riff 1)
Make the sweat drip out of every pore.
        (Riff 1)
And i'm bleedin' and i'm bleedin' and im bleedin' right before my lord.
        (Riff 1)                                              (Riff 1)
All the words are gonna bleed from me, and i will sing no more.
         (Riff 2)
And the stains comin from my blood, tell me go back home.


E|--------------|
B|--------------|
G|------9~~~~---|
D|------9~~~~---|
A|--0---7~~~~---|
E|--------------|

Comentários 69

  • Renato Renato: Postado em 19/12/2014 - 15:41

    Só eu percebi que tá faltando um pedaço do solo??

  • Arthur Arthur: Postado em 27/09/2014 21:11

    pra quem acha q n ta saindo direito é porque o jack white us o slide nessa musica

  • Mikael Mikael: Postado em 30/08/2014 21:24

    riff marcante!

  • lucas.bail.9 lucas.bail.9: Postado em 03/05/2014 22:43

    boa

  • Matheus Matheus: Postado em 15/04/2014 19:59

    melhor música para um iniciante

  • ryanyasmin.coradi ryanyasmin.coradi: Postado em 27/01/2014 18:46

    Ei ees clipe feito pelos iluminatis e serio sigam a deus nao e so porque e rock que tem que ser satanico nao nao se deichem levar sigam a de

    • Bruno Bruno: Postado em 04/02/2014 16:24

      aff mano... coitado de vc, q acredita nisso

    • luiznds luiznds: Postado em 28/03/2014 20:43

      Cara,serio dói ler isso,como cristão posso te garantir que isso ai é coisa da tua cabeça,se for pra se expressar faça direito.

    • William William : Postado em 21/04/2014 00:08

      Comentário removido

    • ka1927 ka1927: Postado em 17/06/2014 11:49

      eu não entendi o que vc quis dizer com o seu comentário, vc pode explicar melhor?

Exibindo 10 de 69 comentários Mostrar mais ver todos »
Composição: Bill Napier
Esse não é o compositor? Avise-nos.
Contribuição: Mathaus Correções: Marlos , Malen e mais 23 »
Exibir acordes »
publicidade
fechar