Chuva de Bruxaria

Victor e Leo

 Victor e Leo
Tom: E
		
Intro:

                E  B/D#  C#m7  C#m7/B  A  A  B           
E|--------------------------------------------|
B|--------------------------------------------|
G|--------------------------------------------|
D|------------6-------------------------------|
A|------6-7-9---7-----------------------------|
E|--7-9---------------------------------------|


                E  B/D#  C#m7  C#m7/B  A  A  B
E|--------------------------------------------|
B|--------------------------------------------|
G|--------------------------------------------|
D|------------6-------------------------------|
A|------6-7-9---7-----------------------------|
E|-7-9----------------------------------------|



E        B       C#m       A
Azuis, vermelhas, brancas flores
E           A     F#m          B
Pintando o cerro dos meus olhares
E       B      C#m      A
Fossem linda garôa em cores
E           A     F#m         B
Molhando a tarde de ares solares
E        B
Chamam você, bem
 G#       C#m
Não fique aí
     G#         A          B       E  E (abafado)
Vem molhar meu beijo, te beijo também

Refrão:
A                         E
Maga magia de lua luzia a noite virando dia
A                         E
Água na boca secando na louca chuva de bruxaria
B         E
Hoje você vem, dizia
B         E
Hoje você vem, dizia

                E  B/D#  C#m7  C#m7/B  A  A  B  E  B/D#  C#m7  C#m7/B  A  A  B
E|-------------------------------------------------------------------------|
B|-------------------------------------------------------------------------|
G|-------------------------------------------------------------------------|
D|------------6------------------------------------------------------------|
A|------6-7-9---7----------------------------------------------------------|
E|--7-9--------------------------------------------------------------------|


E       B   C#m     A
De cada ponta de folhagem
E        A    F#m          B
Cai uma gota dos nossos banhos
E       B   C#m     A
Fada, samambaia, miragem
E        A        F#m         B
Doces varandas, sonhos estranhos
E       B      Ab      C#m
O que a beleza puser na mesa
 G#         A       B      E   E (abafado)
Beba sem medo, vem da natureza

Refrão:
A                         E
Maga magia de lua luzia a noite virando dia
A                         E
Água na boca secando na louca chuva de bruxaria
B         E
Hoje você vem, dizia
B         E
Hoje você vem, dizia
A                         E
Maga magia de lua luzia a noite virando dia
A                         E
Água na boca secando na louca chuva de bruxaria
B         E
Hoje você vem, dizia

Hoje você vem, dizia

                 C
E|---------------8--|
B|---------------6--|
G|---------------5--|
D|------------6--7--|
A|------6-7-9----8--|
E|--7-9-------------|

Comentários 8

  • oliveira09 oliveira09: Postado em 13/05/2014 02:18

    Essa música na versão deles ao vivo é usado um capo na 5° casa no tom C
    A: 0-2-3 D: 0-2-0 intro

  • suelem suelem: Postado em 05/09/2013 11:45

    mt top essa musica

  • eduardoanjos eduardoanjos: Postado em 15/07/2011 18:37

    Por Favor Cifra Club
    Video-Aula
    Essa musica é muito bonita

  • matheus.hrc matheus.hrc: Postado em 14/07/2011 15:23

    procura no youtube q vcs acham um cara la explicando.E a mesma do DVD

  • eduardoanjos eduardoanjos: Postado em 12/07/2011 22:05

    Essa musica é uma das mais Lindas deles...Só falta Video-Aula...valew

  • k9poi k9poi: Postado em 23/06/2011 11:22

    nem eu sei o ritmo...

  • gool gool: Postado em 11/06/2011 12:06

    galera do cifra se vocês puderem me mandar o ritmo dessa música por e-mail, vai me ajudar muito se alguem puder ajudar agradeço vlw

  • adilsontsn adilsontsn: Postado em 15/12/2010 11:23

    capotraste na quinta casa

Composição: Victor Chaves
Esse não é o compositor? Avise-nos.
Contribuição: Marcos Correções: Biel , Juninho e mais 6 »
Exibir acordes »
publicidade
fechar