Adoradores do Rei

Voz da Verdade

 Voz da Verdade
Tom: C
		
F       C      Dm    A#          F        C
adoradores do Rei levantem suas vozes bem alto
Dm      E      F   A#          F   C
adoradores do Rei somos um só coração

     F                       A#
Vou levando o seu amor e tambem a sua paz
      F               C
Para todos corações abençoar
           F                    A#
Pra que o mundo possa ver a verdade e nada mais
    Dm           C
O amor que satisfaz
 Dm  A#         C
A     dorai o Rei

F       E      Dm    A#          F        C
Adoradores do Rei levantem suas vozes bem alto
Dm      E      F   A#          F   C
Adoradores do Rei somos um só coração

       F                       A#
Vamos todos dar as mãos num lugar celestial
     F                 C
E os anjos cantarão esta canção
       F                    A#
Se houver dois corações se tornarão em um
      Dm           C
Basta só louvar a Deus
 Dm  A#         C
A     dorai o Rei

F       C      Dm    A#          F        C
Adoradores do Rei levantem suas vozes bem alto
Dm      E      F   A#          F   C
Adoradores do Rei somos um só coração

(solo) F  G


E|-----------------8-8-8/10-10/12-12-13-13-12-12-10
B|1-1-3-3/5-5/6-5-3--------------------------------
G|-------------------------------------------------
D|-------------------------------------------------
A|-------------------------------------------------
E|-------------------------------------------------



E|-----------------10-9-7-9-10-10-10-12-12/13-13-13-13-15-15-13-12
B|3-3-3-5/7-8-8-7-5-----------------------------------------------
G|----------------------------------------------------------------
D|----------------------------------------------------------------
A|----------------------------------------------------------------
E|----------------------------------------------------------------


       G                       C
Vamos todos dar as mãos num lugar celestial
     Em                      D
E os anjos cantarão esta canção
       G                    C
Se houver dois corações se tornarão em um

      Em           C
Basta só louvar a Deus
 Em  C          D
A     dorai o Rei

( Em  Am  D/F#  G  C  G  D )

     Em  Am       D/F#  G         C            G   D
H o s a n a   H o s a n a   H o s a n a   ao  Re - ei  ( 5 x )

G
JESUS
46.974 exibições

Comentários 1

  • Binho Binho: Postado em 11/04/2013 22:42

    Eu acho que está errado, no original é em Lá Menor!!!

Composição: David Singer / Tom Shapiro
Esse não é o compositor? Avise-nos.
Contribuição: Pontes Correções: emerSon »
Exibir acordes »
publicidade
fechar