Cifra Club

Smooth Criminal

Alien Ant Farm

Cifra: Versão 4 (violão e guitarra)
tom: C
 Tabbed by Andy, *.
  
this is totally correct. all of it.
sorry it's long, but i couldn't find a way to shorten it
without getting everything down in order.
any questions/comments email to Andy at * 
standard tuning: e,a,d,g,b,e

Intro riff:
|---||-----------------------------|--------------------------|
|---||-----------------------------|--------------------------|
|---||*----------------------------|-------------------------*|
|---||*----------------------------|-------------------------*|
|-2-||----0-0-0-0---0-2--2-----0-2-|3--3-----3-3-2------------|
|-0-||------------3----------------|----------------3-----0---|

repeats four times as intro

play intro riff three times as verse, then...

|---------------------------|-------------------------|
|---------------------------|-------------------------|
|---------------------------|-------------------------|
|---------------------------|----------------------3--|
|--0-0-0-0---0-2--2-----0-2-|3--3-----3-3-2--------3--|
|----------3----------------|----------------3-----1--|

(\"Annie are you ok, you ok, you ok annie?\")
|---------------------------|-------------------------|
|---------------------------|-------------------------|
|---------------------------|-------------------------|
|(3)------------------------|(3)----------5--5-----3--|
|(3)------------------------|(3)----------5--5-----3--|
|(1)------------------------|(1)----------3--3-----1--|

|---------------------------|-------------------------|
|---------------------------|-------------------------|
|---------------------------|-------------------------|
|(3)------------------------|(3)----------5--5-----3--|
|(3)------------------------|(3)----------5--5-----3--|
|(1)------------------------|(1)----------3--3-----1--|

|---------------------------|-------------------------|
|---------------------------|-------------------------|
|---------------------------|-------------------------|
|(3)------------------------|(3)-------------------3--|
|(3)------------------------|(3)-------------------3--|
|(1)------------------------|(1)----------3--------1--|

|---------------------------|-------------------------|
|---------------------------|-------------------------|
|---------------------------|----------------------2--|
|(3)------------------------|2------------5--2--5--2--|
|(3)------------------------|2------------5--2--5--0--|
|(1)------------------------|0------------3--0--3-----|

Chorus: 
(\"Annie are you ok, would you tell us that your ok...\")

|---------------------------|-------------------------|
|---------------------------|-------------------------|
|---2-2-2-2-2-2-------------|----------------------2--|
|---2-2-2-2-2-2-5--5----5-5-|3--3-----3-3-5--3--5--2--|
|---0-0-0-0-0-0-5--5----5-5-|3--3-----3-3-5--3--5--0--|
|---------------3--3----3-3-|1--1-----1-1-3--1--3-----|

|---------------------------|-------------------------|
|---------------------------|-------------------------|
|---2-2-2-2-2-2-------------|----------------------2--|
|---2-2-2-2-2-2-5--5----5-5-|3--3-----3-3-2-----5--2--|
|---0-0-0-0-0-0-5--5----5-5-|3--3-----3-3-2-----5--0--|
|---------------3--3----3-3-|1--1-----1-1-0-----3-----|

|---------------------------|-------------------------|
|---------------------------|-------------------------|
|---2-2-2-2-2-2-------------|----------------------2--|
|---2-2-2-2-2-2-5--5----5-5-|3--3-----3-3-5--3--5--2--|
|---0-0-0-0-0-0-5--5----5-5-|3--3-----3-3-5--3--5--0--|
|---------------3--3----3-3-|1--1-----1-1-3--1--3-----|

|---------------------------|-------------------------|
|---------------------------|-------------------------|
|---2-2-2-2-2-2-------------|-------------------------|
|---2-2-2-2-2-2-5--5----5-5-|3--3-----3-3-2--2--5--3--|
|---0-0-0-0-0-0-5--5----5-5-|3--3-----3-3-2--2--5--3--|
|---------------3--3----3-3-|1--1-----1-1-0--0--3--1--|

|---------------------------|-------------------------|
|---------------------------|-------------------------|
|---------------------------|-------------------------|
|(3)------------------------|(3)----------5--5-----3--|
|(3)------------------------|(3)----------5--5-----3--|
|(1)------------------------|(1)----------3--3-----1--|

|---------------------------|-------------------------|
|---------------------------|-------------------------|
|---------------------------|-------------------------|
|(3)------------------------|(3)----------5--5-----3--|
|(3)------------------------|(3)----------5--5-----3--|
|(1)------------------------|(1)----------3--3-----1--|

|---------------------------|-------------------------|
|---------------------------|-------------------------|
|---------------------------|-------------------------|
|(3)------------------------|(3)----------5--5--5--3--|
|(3)------------------------|(3)----------5--5--5--3--|
|(1)------------------------|(1)----------3--3--3--1--|

(\"You've been hit bad, you've been struck by a smooth criminal\")
|---------------------------|-------------------------|
|---------------------------|-------------------------|
|---------------------------|-------------------------|
|---------------------------|-------------------------|
|2-----------2--2-----------|------2---------------0--|
00:00 / 00:00
Outros vídeos desta música
Repetir
Outros vídeos desta música
Composição de Michael Jackson
605 exibições
    • ½ Tom
    • A
    • Bb
    • B
    • C
    • Db
    • D
    • Eb
    • E
    • F
    • F#
    • G
    • Ab
  • Adicionar à lista

    0 comentários

    Ver todos os comentários

    Entre para oCifra Club PRO

    Tenha acesso a benefícios exclusivos no App e no Site

    • Chega de anúncios

    • Prioridade de compra em lançamentos

    • Mais recursos no app do Afinador

    • Atendimento Prioritário

    • Descontos nos produtos Cifra Club

    • Ajude a produzir mais conteúdo

    00:00 / 00:00
    Capítulos
    • Tocando a música
    • Dicas Iniciais / Equipamentos
    • Tocando a Introdução e Primeira Parte
    • Riff Principal
    • Acordes da Ponte
    • Tocando a Ponte 1
    • Ritmo da Ponte 1
    • Tocando o Refrão
    • Ritmo do Refrão
    • Tocando a Ponte 2
    • Ritmo da Ponte 2
    • Tocando a Ponte 4
    • Ritmo da Ponte 4
    • Tocando o Solo
    • Solo
    • Encerramento
    • Ficha Técnica

    Cifra Club Pro

    Aproveite o Cifra Club com benefícios exclusivos e sem anúncios
    Cifra Club Pro
    Aproveite o Cifra Club com benefícios exclusivos e sem anúncios
    OK