Cifra Club

Aprenda

Evil Warning

Angra

Tab de baixo: Versão 2
G||--------------------|--------------------|--------------------|
D||--------------------|-----------5--------|--8-----------------|
A||-----------8--------|--6-----------------|-----------8--------|
E||--6-----------------|--------------------|--------------------|


-------------------|--------------------|--------------------|
-------------------|--------------------|-----------5--------|
--6----------------|-----------8--------|--6-----------------|
-------------------|--6-----------------|--------------------|


--------------------|-------------------|------------------|------------------|
--8-----------------|-------------------|------------------|------------------|
-----------8--------|-------------------|------------------|------------------|
--------------------|--3----------------|------------------|------------------|


------------------|-------------------|------------------|------------------|
------------------|-------------------|------------------|------------------|
------------------|-------------------|------------------|------------------|
------------------|--3----------------|------------------|------------------|


------------------|------------------------|------------------------|
------------------|--5----5--5--5--5--5----|--5----5--5--5--5--5----|
------------------|------------------------|------------------------|
------------------|------------------------|------------------------|


------------------------|------------------------|------------------------|
--3----3--3--3--3--3----|------------------------|------------------------|
------------------------|--5----5--5--5--5--5----|--6----6--6--6--6--6----|
------------------------|------------------------|------------------------|


------------------------|------------------------|------------------------|
------------------------|------------------------|------------------------|
--6----6--6--6--6--6----|------------------------|--8----8--8--8--8--8----|
------------------------|--6----6--6--6--6--6----|------------------------|


-----------------------|------------------------|------------------------|
-------5----5--5--5----|--5----5--5--5--5--5----|--5----5--5--5--5--5----|
--8--------------------|------------------------|------------------------|
-----------------------|------------------------|------------------------|


------------------------|------------------------|------------------------|
------------------------|------------------------|------------------------|
--8----8--8--5--5--5----|--6----6--6--6--6--6----|--6----6--6--6--6--6----|
------------------------|------------------------|------------------------|


------------------------|--------------------|--------------------------|
-------------------8----|--7--------3--------|--------------------------|
------------------------|--------------------|--1--1--1--1--1--1--1--1--|
--6----6--6--6--6-------|--------------------|--------------------------|


--------------------------|--------------------------|
--------------------------|--------------------------|
--1--1--1--1--1--1--1--1--|--------------------------|
--------------------------|--1--1--1--1--1--1--1--1--|


--------------------------|--------------------------|
--------------------------|--------------------------|
--------------------------|--5--5--5--5--5--5--5--5--|
--1--1--1--1--1--1--1--1--|--------------------------|


--------------------------|--------------------------|
--------------------------|--------------------------|
--5--5--5--5--5--5--5--5--|--5--5--5--5--5--5--5--5--|
--------------------------|--------------------------|


--------------------------|--------------------------|
--------------------------|--------------------------|
--5--5--5--5--5--5--5--5--|--6--6--6--6--6--6--6--6--|
--------------------------|--------------------------|


--------------------------|--------------------------|
--------------------------|--5--5--5--5--5--5--5--5--|
--6--6--6--6--6--6--6--6--|--------------------------|
--------------------------|--------------------------|


--------------------------|--------------------------|
--5--5--5--5--5--5--5--5--|--------------------------|
--------------------------|--8--8--8--8--8--8--8--8--|
--------------------------|--------------------------|


--------------------------|--------------------------|-------------------------|
--------------------------|--------------------------|-------------------------|
--8--8--8--8--8--8--8--8--|--8--8--8--8--8--8--8--8--|--8--8--8--8--8--8--8/---|
--------------------------|--------------------------|-------------------------|


--------------------------|--------------------------|
--------------------------|--------------------------|
--1--1--1--1--1--1--1--1--|--1--1--1--1--1--1--1--1--|
--------------------------|--------------------------|


--------------------------|--------------------------|
--------------------------|--------------------------|
--------------------------|--------------------------|
--1--1--1--1--1--1--1--1--|--1--1--1--1--1--1--1--1--|


--------------------------|--------------------------|
--------------------------|--------------------------|
--5--5--5--5--5--5--5--5--|--5--5--5--5--5--5--5--5--|
--------------------------|--------------------------|


--------------------------|--------------------------|
--------------------------|--------------------------|
--5--5--5--5--5--5--5--5--|--5--5--5--5--5--5--5--5--|
--------------------------|--------------------------|


--------------------------|--------------------------|
--------------------------|--------------------------|
--6--6--6--6--6--6--6--6--|--6--6--6--6--6--6--6--6--|
--------------------------|--------------------------|


--------------------------|--------------------------|
--5--5--5--5--5--5--5--5--|--5--5--5--5--5--5--5--5--|
--------------------------|--------------------------|
--------------------------|--------------------------|


--------------------------|--------------------------|
--------------------------|--------------------------|
--8--8--8--8--8--8--8--8--|--8--8--8--8--8--8--8--8--|
--------------------------|--------------------------|


--------------------------|-------------------------|--------------------------|
--------------------------|-------------------------|--------------------------|
--8--8--8--8--8--8--8--8--|--8--8--8--8--8--8--8/---|--5--5--5--5--5--5--5--5--|
--------------------------|-------------------------|--------------------------|


--------------------------|-------------------------|---------------------|
--------------------------|-------------------------|---------------------|
--5--5--5--5--5--5--5--5--|--5--5--5--5--5--5--3----|-----------3----5----|
--------------------------|-------------------------|------5--------------|


--------------------------|--------------------------|-------------------------|
--------------------------|--------------------------|-------------------------|
--5--5--5--5--5--5--5--5--|--5--5--5--5--5--5--5--5--|--5--5--5--5--5--5--3----|
--------------------------|--------------------------|-------------------------|


---------------------|--------------------------|--------------------------|
---------------------|--------------------------|--------------------------|
-----------3----5----|--5--5--5--5--5--5--5--5--|--5--5--5--5--5--5--5--5--|
------5--------------|--------------------------|--------------------------|


-------------------------|---------------------|--------------------------|
-------------------------|---------------------|--------------------------|
--5--5--5--5--5--5--3----|-----------3----5----|--5--5--5--5--5--5--5--5--|
-------------------------|------5--------------|--------------------------|


--------------------------|-------------------------|--------------------------|
--------------------------|-------------------------|--3--3--4--4--5--5--5--5--|
--5--5--5--5--5--5--5--5--|--5----6--6--7--7--7--7--|--------------------------|
--------------------------|-------------------------|--------------------------|


------------------------|------------------------|------------------------|
------------------------|------------------------|------------------------|
--5----5--5--5--5--5----|--5----5--5--5--5--5----|--5----5--5--5--5--5----|
------------------------|------------------------|------------------------|


------------------------|------------------------|------------------------|
------------------------|------------------------|------------------------|
--5----5--5--5--5--5----|--5----5--5--5--5--5----|--5----5--5--5--5--5----|
------------------------|------------------------|------------------------|


--------------------------|--------------------------|------------------------|
--7--7--7--7--7--7--7--7--|--7--7--7--7--7--7--7--7--|------------------------|
--------------------------|--------------------------|--5----5--5--5--5--5----|
--------------------------|--------------------------|------------------------|


------------------------|------------------------|------------------------|
------------------------|------------------------|------------------------|
--5----5--5--5--5--5----|--5----5--5--5--5--5----|--5----5--5--5--5--5----|
------------------------|------------------------|------------------------|


--------------------------|--------------------------|
--------------------------|--------------------------|
--------------------------|--------------------------|
--6--6--6--6--6--5--6--6--|--6--6--5--6--6--6--6--6--|


--------------------------|--------------------------|------------------------|
--------------------------|--------------------------|------------------------|
--------------------------|--------------------------|--5----5--5--5--5--5----|
--6--6--6--5--5--5--6--6--|--6--6--6--6--6--6--6--6--|------------------------|


------------------------|------------------------|------------------------|
------------------------|------------------------|------------------------|
--5----5--5--5--5--5----|--5----5--5--5--5--5----|--5----5--5--5--5--5----|
------------------------|------------------------|------------------------|


------------------------|------------------------|--------------------------|
------------------------|------------------------|--7--7--7--7--7--7--7--7--|
--5----5--5--5--5--5----|--5----5--5--5--5--5----|--------------------------|
------------------------|------------------------|--------------------------|


--------------------------|------------------------|------------------------|
--7--7--7--7--7--7--7--7--|------------------------|------------------------|
--------------------------|--5----5--5--5--5--5----|--5----5--5--5--5--5----|
--------------------------|------------------------|------------------------|


------------------------|------------------------|--------------------------|
------------------------|------------------------|--------------------------|
--5----5--5--5--5--5----|--5----5--5--5--5--5----|--------------------------|
------------------------|------------------------|--6--6--6--6--6--5--6--6--|


--------------------------|--------------------------|
--------------------------|--------------------------|
--------------------------|--------------------------|
--6--6--5--6--6--6--6--6--|--6--6--6--6--6--6--6--6--|


--------------------------|------------------------|------------------------|
--------------------------|------------------------|------------------------|
--------------------------|--5----5--5--5--5--5----|--5----5--5--5--5--5----|
--6--6--6--6--6--6--6--6--|------------------------|------------------------|


------------------------|---------------------|------------------------|
------------------------|---------------------|------------------------|
--5----5--5--5--5--3----|-----------3----5----|--5----5--5--5--5--5----|
------------------------|------5--------------|------------------------|


------------------------|------------------------|------------------------|
------------------------|------------------------|------------------------|
--5----5--5--5--5--5----|--5----5--5--5--5--5----|--5----5--5--5--5--5----|
------------------------|------------------------|------------------------|


------------------------|------------------------|------------------------|
------------------------|------------------------|------------------------|
--5----5--5--5--5--5----|--5----5--5--5--5--5----|--5----5--5--5--5--3----|
------------------------|------------------------|------------------------|


---------------------|------------------------|------------------------|
---------------------|------------------------|------------------------|
-----------3----5----|--5----5--5--5--5--5----|--5----5--5--5--5--5----|
------5--------------|------------------------|------------------------|


------------------------|------------------------|------------------------|
------------------------|------------------------|------------------------|
--3----3--3--3--3--3----|--3----3--3--3--3--3----|------------------------|
------------------------|------------------------|--3----3--3--3--3--3----|


------------------------|------------------------|------------------------|
------------------------|------------------------|------------------------|
------------------------|------------------------|------------------------|
--3----3--3--3--3--3----|--3----3--3--3--3--3----|--3----3--3--3--3--3----|


------------------------|------------------------|-------------------|
------------------------|------------------------|-------------------|
------------------------|------------------------|-------------------|
--6----6--6--6--6--6----|--6----6--6--6--6--6----|--6----------------|


-------------------|------------------------|------------------------|
-------------------|------------------------|------------------------|
-------------------|--5----5--5--5--5--5----|--5----5--5--5--5--5----|
--6----------------|------------------------|------------------------|


------------------------|---------------------|------------------------|
------------------------|---------------------|------------------------|
--5----5--5--5--5--3----|-----------3----5----|--5----5--5--5--5--5----|
------------------------|------5--------------|------------------------|


------------------------|------------------------|------------------------|
------------------------|------------------------|------------------------|
--5----5--5--5--5--5----|--5----5--5--5--5--5----|--5----5--5--5--5--5----|
------------------------|------------------------|------------------------|


------------------------|------------------------|------------------------|
------------------------|------------------------|------------------------|
--5----5--5--5--5--5----|--5----5--5--5--5--5----|--5----5--5--5--5--3----|
------------------------|------------------------|------------------------|


---------------------|------------------------|------------------------|
---------------------|------------------------|------------------------|
-----------3----5----|--5----5--5--5--5--5----|--5----5--5--5--5--5----|
------5--------------|------------------------|------------------------|


------------------------|------------------------|------------------------|
------------------------|------------------------|------------------------|
--3----3--3--3--3--3----|--3----3--3--3--3--3----|------------------------|
------------------------|------------------------|--1----1--1--1--1--1----|


------------------------|------------------------|------------------------|
------------------------|------------------------|------------------------|
------------------------|------------------------|------------------------|
--1----1--1--1--1--1----|--1----1--1--1--1--1----|--1----1--1--1--1--1----|


------------------------|------------------------|-------------------|
------------------------|------------------------|-------------------|
--6----6--6--6--6--6----|--6----6--6--6--6--6----|--6----------------|
------------------------|------------------------|-------------------|


------------------|--------------------------|--------------------------|
------------------|--------------------------|--------------------------|
------------------|--------------------------|--------------------------|
------------------|--3--3--3--3--3--3--3--3--|--3--3--3--3--3--3--3--3--|


--------------------------|--------------------------|
--------------------------|--------------------------|
--------------------------|--------------------------|
--3--3--3--3--3--3--3--3--|--3--3--3--3--3--3--3--3--|


--------------------------|--------------------------|
--------------------------|--------------------------|
--------------------------|--------------------------|
--1--1--1--1--1--1--1--1--|--1--1--1--1--1--1--1--1--|


--------------------------|--------------------------|
--------------------------|--------------------------|
--5--5--5--5--5--5--5--5--|--5--5--5--5--5--5--5--5--|
--------------------------|--------------------------|


--------------------------|--------------------------|-------------------------|
--------------------------|--------------------------|-------------------------|
--3--3--3--3--3--3--3--3--|--------------------------|-------------------------|
--------------------------|--1--1--1--1--1--1--1--1--|--1----3--3--3--3--3--3--|


--------------------------|--------------------------|
--------------------------|--------------------------|
--------------------------|--------------------------|
--3--3--3--3--3--3--3--3--|--3--3--3--3--3--3--3--3--|


--------------------------|--------------------------|
--------------------------|--------------------------|
--------------------------|--------------------------|
--3--3--3--3--3--3--3--3--|--1--1--1--1--1--1--1--1--|


--------------------------|--------------------------|
--------------------------|--------------------------|
--------------------------|--5--5--5--5--5--5--5--5--|
--1--1--1--1--1--1--1--1--|--------------------------|


--------------------------|--------------3--3--------|
--------------------------|--------5--5--------6--6--|
--5--5--5--5--5--5--5--5--|--6--6--------------------|
--------------------------|--------------------------|


--------------------------|--------------------------|
--5--5--3--3--------------|--------------5--5--3--3--|
--------------6--6--5--5--|--3--3--6--6--------------|
--------------------------|--------------------------|


--------------------------|--------------------------|
--------------------------|--------------------------|
--6--6--5--5--3--3--5--5--|--1--1--1--1--1--1--1--1--|
--------------------------|--------------------------|


--------------------------|-------------------|------------------|
--------------------------|-------------------|------------------|
--1--1--1--1--1--1--1--1--|-------------------|------------------|
--------------------------|--1----------------|------------------|


------------------------|------------------------|------------------------|
--5----5--5--5--5--5----|--5----5--5--5--5--5----|--3----3--3--3--3--3----|
------------------------|------------------------|------------------------|
------------------------|------------------------|------------------------|


------------------------|------------------------|------------------------|
------------------------|------------------------|------------------------|
--5----5--5--5--5--5----|--6----6--6--6--6--6----|--6----6--6--6--6--6----|
------------------------|------------------------|------------------------|


------------------------|------------------------|-----------------------|
------------------------|------------------------|-------5----5--5--5----|
------------------------|--8----8--8--8--8--8----|--8--------------------|
--6----6--6--6--6--6----|------------------------|-----------------------|


------------------------|------------------------|------------------------|
--5----5--5--5--5--5----|--5----5--5--5--5--5----|------------------------|
------------------------|------------------------|--8----8--8--5--5--5----|
------------------------|------------------------|------------------------|


------------------------|------------------------|------------------------|
------------------------|------------------------|--8----8--8--8--8--8----|
--6----6--6--6--6--6----|--6----6--6--6--6--6----|------------------------|
------------------------|------------------------|------------------------|


----------------------|--------7--------7--------|--------7--------7--------|
--7----7--7-----------|-----7--------7--------7--|-----7--------7--------7--|
-------------8--------|--5--------5--------5-----|--5--------5--------5-----|
----------------------|--------------------------|--------------------------|


--------7--------7--------|--------7--------7--------|
-----7--------7--------7--|-----7--------7--------7--|
--5--------5--------5-----|--5--------5--------5-----|
--------------------------|--------------------------|


--------5--------5--------|--------5--------5--------|
-----5--------5--------5--|-----5--------5--------5--|
--3--------3--------3-----|--3--------3--------3-----|
--------------------------|--------------------------|


--------------------------|--------------------------|
--------7--------7--------|--------8--------8--------|
-----7--------7--------7--|-----8--------8--------8--|
--5--------5--------5-----|--6--------6--------6-----|


--------------10h-14h-10h-15h-10h-|--14h-10h-15h-10h-14h-10----------|
----------12----------------------|--------------------------12------|
------12--------------------------|------------------------------12--|
--10------------------------------|----------------------------------|


--------------10h-14h-10h-15h-10h-|--14h-10h-15h-10h-14h-10----------|
----------12----------------------|--------------------------12------|
------12--------------------------|------------------------------12--|
--10------------------------------|----------------------------------|


--9----------9----------9------|--9----------9----------9------|
---------10---------10---------|---------10---------10---------|
-----10---------10---------10--|-----10---------10---------10--|
-------------------------------|-------------------------------|


--5--------5--------5-----|--7--------7--------7-----|-------------------|
--------7--------7--------|--------8--------8--------|-------------------|
-----7--------7--------7--|-----8--------8--------8--|--5----------------|
--------------------------|--------------------------|-------------------|


---------------------|----------------------|---------------------|
---------------------|----------------------|---------------------|
--5----5------6------|--5----5----5----5----|--5----5------6------|
---------------------|----------------------|---------------------|


--------------------|---------------------|----------------------|
--------------------|---------------------|----------------------|
------5--------5----|--5----5------6------|--5----5----5----5----|
--------------------|---------------------|----------------------|


---------------------|--------------------|---------------------|
---------------------|--------------------|---------------------|
--5----5------6------|------5--------5----|--5----5------6------|
---------------------|--------------------|---------------------|


----------------------|---------------------|--------------------|
----------------------|---------------------|--------------------|
--5----5----5----5----|--5----5------6------|------5--------5----|
----------------------|---------------------|--------------------|


---------------------|----------------------|---------------------|
---------------------|----------------------|---------------------|
--5----5------6------|--5----5----5----5----|--5----5------6------|
---------------------|----------------------|---------------------|


--------------------|--------------------------|--------------------------|
--------------------|--------------------------|--------------------------|
------5--------5----|--------------------------|--------------------------|
--------------------|--3--3--3--3--3--3--3--3--|--3--3--3--3--3--3--3--3--|


--------------------------|----------------------------|
--------------------------|----------------------------|
--5--5--5--5--5--5--5--5--|--0-0-0-0-5----0-0-0-0-5----|
--------------------------|----------------------------|


--------------------------|--------------------------|
--------------------------|--------------------------|
--------------------------|--------------------------|
--3--3--3--3--3--3--3--3--|--3--3--3--3--3--3--3--3--|


--------------------------|--------------------------|-------------------|
--------------------------|--------------------------|-------------------|
--5--5--5--5--5--5--5--5--|--5--5--5--5--5--5--5--5--|--6----------------|
--------------------------|--------------------------|-------------------|


-------------------|--------------------|-------------------|
-------------------|--------------------|-------------------|
-------------------|---------------0----|--1----------------|
--1----------------|--3-----------------|-------------------|


-------------------|-------------------|-------------------|-------------------|
--1----------------|-------------------|-------------------|-------------------|
-------------------|-------------------|--3----------------|--3----------------|
-------------------|--1----------------|-------------------|-------------------|


-------------------|-------------------|--------------------|
--1----------------|-------------------|--------------------|
-------------------|-------------------|---------------0----|
-------------------|--1----------------|--3-----------------|


-------------------|-------------------|-------------------|-------------------|
-------------------|--1----------------|--3----------------|-------------------|
--1----------------|-------------------|-------------------|--3----------------|
-------------------|-------------------|-------------------|-------------------|


-------------------|-------------------|------------------|
-------------------|-------------------|------------------|
--3----------------|--3----------------|------------------|
-------------------|-------------------|------------------|


------------------------|------------------------|------------------------|
------------------------|------------------------|------------------------|
------------------------|------------------------|--3----3--3--3----3--3--|
--3----3--3--3--3--3----|--3----3--3--3--3--3----|------------------------|


-----------------------|------------------------|------------------------|
-----------------------|------------------------|------------------------|
--3----3--3--3----3----|------------------------|------------------------|
-----------------------|--1----1--1--1--1--1----|--1----1--1--1--1--1----|


------------------------|-----------------------|------------------------|
------------------------|-----------------------|------------------------|
--1----1--1--1----1--1--|--1----1--1--1----1----|--6----6--6--6--6--6----|
------------------------|-----------------------|------------------------|


------------------------|------------------------|-----------------------|
------------------------|--7----7--7--7----7--7--|--7----7--7--7----7----|
--6----6--6--6--6--6----|------------------------|-----------------------|
------------------------|------------------------|-----------------------|


------------------------|------------------------|-------------------|
------------------------|------------------------|--5----------------|
--5----5--5--5--5--5----|--5----5--5--5--5--5----|-------------------|
------------------------|------------------------|-------------------|


-------------------|------------------------|------------------------|
-------------------|------------------------|------------------------|
--8----------------|------------------------|------------------------|
-------------------|--6----6--6--6--6--6----|--6----6--6--6--6--6----|


------------------------|------------------------|------------------------|
------------------------|------------------------|------------------------|
--6----6--6--6--6--6----|--6----6--6--6--6--6----|------------------------|
------------------------|------------------------|--4----4--4--4--4--4----|


------------------------|------------------------|------------------------|
------------------------|------------------------|------------------------|
------------------------|--4----4--4--4--4--4----|--4----4--4--4--4--4----|
--4----4--4--4--4--4----|------------------------|------------------------|


------------------------|------------------------|------------------------|
--4----4--4--4--4--4----|--4----4--4--4--4--4----|------------------------|
------------------------|------------------------|--3----3--3--3--3--3----|
------------------------|------------------------|------------------------|


------------------------|------------------------|------------------------|
------------------------|--3----3--3--3--3--3----|--3----3--3--3--3--3----|
--3----3--3--3--3--3----|------------------------|------------------------|
------------------------|------------------------|------------------------|


----------------------|--------------------|---------------------|
--5--------------7/---|--8--------5--------|-----------5----7h---|
-------5--------------|--------------------|--6------------------|
------------6---------|--------------------|---------------------|


----------------------|----------------------|--------------------|
--8---------5----8----|--3--------------5/---|--7--------3--------|
-------6--------------|-------3--------------|--------------------|
----------------------|------------5---------|--------------------|


----------------------|--3-------------3----|---------------------|
-----------------3----|-----------3---------|-----------5----7----|
-------3----5---------|---------------------|--6------------------|
--6-------------------|---------------------|---------------------|


----------------------|--------------------|-------------------|
--8---------5----8----|--------------------|-------------------|
-------6--------------|--8------------8----|----------8--------|
----------------------|--------------------|-------------------|


------------------|-------------------|-------------------|-------------------|
------------------|-------------------|-------------------|-------------------|
------------------|--------------8----|-------------------|--8----------------|
------------------|-------------------|--6----------------|-------------------|


-------------------|-------------------|-------------------|-------------------|
-------------------|--5----------------|--8----------------|-------------------|
--6----------------|-------------------|-------------------|--8----------------|
-------------------|-------------------|-------------------|-------------------|


-------------------|------------------|-------------------|-------------------|
-------------------|------------------|-------------------|-------------------|
--6----------------|------------------|-------------------|--8----------------|
-------------------|------------------|--6----------------|-------------------|


-------------------|-------------------|-------------------|-------------------|
-------------------|--5----------------|--8----------------|-------------------|
--6----------------|-------------------|-------------------|--8----------------|
-------------------|-------------------|-------------------|-------------------|


-------------------|------------------|------------------------|
-------------------|------------------|------------------------|
-------------------|------------------|------------------------|
--8----------------|------------------|--6----6--6--6--6--6----|


------------------------|------------------------|------------------------|
------------------------|------------------------|--5----5--5--5--5--5----|
--8----8--8--8--8--8----|--6----6--6--6--6--6----|------------------------|
------------------------|------------------------|------------------------|


------------------------|------------------------|------------------------|
--8----8--8--8--8--8----|------------------------|------------------------|
------------------------|--8----8--8--8--8--8----|--6----6--6--6--6--6----|
------------------------|------------------------|------------------------|


------------------------|------------------------|------------------------|
------------------------|------------------------|------------------------|
--6----6--6--6--6--6----|------------------------|--8----8--8--8--8--8----|
------------------------|--6----6--6--6--6--6----|------------------------|


------------------------|------------------------|------------------------|
------------------------|--5----5--5--5--5--5----|--8----8--8--8--8--8----|
--6----6--6--6--6--6----|------------------------|------------------------|
------------------------|------------------------|------------------------|


------------------------|-------------------|------------------|
------------------------|-------------------|------------------|
--8----8--8--8--8--8----|-------------------|------------------|
------------------------|--6----------------|------------------|


------------------------|------------------------|------------------------|
------------------------|------------------------|------------------------|
--5----5--5--5--5--5----|--5----5--5--5--5--5----|--5----5--5--5--5--3----|
------------------------|------------------------|------------------------|


---------------------|------------------------|------------------------|
---------------------|------------------------|------------------------|
-----------3----5----|--5----5--5--5--5--5----|--5----5--5--5--5--5----|
------5--------------|------------------------|------------------------|


------------------------|------------------------|------------------------|
------------------------|------------------------|------------------------|
--5----5--5--5--5--5----|--5----5--5--5--5--5----|--5----5--5--5--5--5----|
------------------------|------------------------|------------------------|


------------------------|------------------------|---------------------|
------------------------|------------------------|---------------------|
--5----5--5--5--5--5----|--5----5--5--5--5--3----|-----------3----5----|
------------------------|------------------------|------5--------------|


------------------------|------------------------|------------------------|
------------------------|------------------------|------------------------|
--5----5--5--5--5--5----|--5----5--5--5--5--5----|--3----3--3--3--3--3----|
------------------------|------------------------|------------------------|


------------------------|------------------------|------------------------|
------------------------|------------------------|------------------------|
--3----3--3--3--3--3----|------------------------|------------------------|
------------------------|--1----1--1--1--1--1----|--1----1--1--1--1--1----|


------------------------|------------------------|------------------------|
------------------------|------------------------|------------------------|
------------------------|------------------------|--6----6--6--6--6--6----|
--1----1--1--1--1--1----|--1----1--1--1--1--1----|------------------------|


------------------------|-------------------|------------------|
------------------------|-------------------|------------------|
--6----6--6--6--6--6----|--6----------------|------------------|
------------------------|-------------------|------------------|


--------------------------|--------------------------|
--------------------------|--------------------------|
--------------------------|--------------------------|
--3--3--3--3--3--3--3--3--|--3--3--3--3--3--3--3--3--|


--------------------------|--------------------------|
--------------------------|--------------------------|
--------------------------|--------------------------|
--3--3--3--3--3--3--3--3--|--3--3--3--3--3--3--3--3--|


--------------------------|--------------------------|
--------------------------|--------------------------|
--------------------------|--------------------------|
--1--1--1--1--1--1--1--1--|--1--1--1--1--1--1--1--1--|


--------------------------|--------------------------|
--------------------------|--------------------------|
--5--5--5--5--5--5--5--5--|--5--5--5--5--5--5--5--5--|
--------------------------|--------------------------|


--------------------------|--------------------------|-------------------------|
--------------------------|--------------------------|-------------------------|
--3--3--3--3--3--3--3--3--|--------------------------|-------------------------|
--------------------------|--1--1--1--1--1--1--1--1--|--1----3--3--3--3--3--3--|


--------------------------|--------------------------|
--------------------------|--------------------------|
--------------------------|--------------------------|
--3--3--3--3--3--3--3--3--|--3--3--3--3--3--3--3--3--|


--------------------------|--------------------------|
--------------------------|--------------------------|
--------------------------|--------------------------|
--3--3--3--3--3--3--3--3--|--1--1--1--1--1--1--1--1--|


--------------------------|--------------------------|
--------------------------|--------------------------|
--------------------------|--5--5--5--5--5--5--5--5--|
--1--1--1--1--1--1--1--1--|--------------------------|


--------------------------|--------------3--3--------|
--------------------------|--------5--5--------6--6--|
--5--5--5--5--5--5--5--5--|--6--6--------------------|
--------------------------|--------------------------|


--------------------------|--------------------------|
--5--5--3--3--------------|--------------5--5--3--3--|
--------------6--6--5--5--|--3--3--6--6--------------|
--------------------------|--------------------------|


--------------------------|--------------------------|
--------------------------|--------------------------|
--6--6--5--5--3--3--5--5--|--1--1--1--1--1--1--1--1--|
--------------------------|--------------------------|


--------------------------|-------------------|------------------|
--------------------------|-------------------|------------------|
--1--1--1--1--1--1--1--1--|-------------------|------------------|
--------------------------|--1----------------|------------------|


--------------------------|--------------------------|
--------------------------|--------------------------|
--------------------------|--------------------------|
--3--3--3--3--3--3--3--3--|--3--3--3--3--3--3--3--3--|


--------------------------|--------------------------|
--------------------------|--------------------------|
--------------------------|--------------------------|
--3--3--3--3--3--3--3--3--|--3--3--3--3--3--3--3--3--|


--------------------------|--------------------------|
--------------------------|--------------------------|
--------------------------|--------------------------|
--1--1--1--1--1--1--1--1--|--1--1--1--1--1--1--1--1--|


--------------------------|--------------------------|
--------------------------|--------------------------|
--5--5--5--5--5--5--5--5--|--5--5--5--5--5--5--5--5--|
--------------------------|--------------------------|


--------------3--3--------|--------------------------|
--------5--5--------6--6--|--5--5--3--3--------------|
--6--6--------------------|--------------6--6--5--5--|
--------------------------|--------------------------|


--------------------------|--------------------------|
--------------5--5--3--3--|--------------------------|
--3--3--6--6--------------|--6--6--5--5--3--3--5--5--|
--------------------------|--------------------------|


--------------------------|--------------------------|
--------------------------|--------------------------|
--1--1--1--1--1--1--1--1--|--1--1--1--1--1--1--1--1--|
--------------------------|--------------------------|


-----------------------------|-----------------------------|-------------------|
-----------------------------|-----------------------------|-------------------|
-----------------------------|-----------------------------|--1----------------|
--1--------1--------1--------|--1--------1--------1--------|-------------------|


------------------|-------------------|-------------------|-------------------|
------------------|-------------------|-------------------|-------------------|
------------------|-------------------|-------------------|--5----------------|
------------------|--1----------------|----------1--------|-------------------|


------------------|-------------------|------------------|-------------------|
------------------|-------------------|------------------|-------------------|
------------------|--5----------------|------------------|--6----------------|
------------------|-------------------|------------------|-------------------|


------------------|-------------------|------------------|-------------------|
------------------|--5----------------|------------------|--3----------------|
------------------|-------------------|------------------|-------------------|
------------------|-------------------|------------------|-------------------|


------------------|-------------------|-------------------|
------------------|--3----------------|--3----------------|
------------------|-------------------|-------------------|
------------------|-------------------|-------------------|


--------------------------|--------------------------|
--------------------------|--------------------------|
--1--1--1--1--1--1--1--1--|--1--1--1--1--1--1--1--1--|
--------------------------|--------------------------|
Composição de Andre Matos / Rafael Bittencourt
Colaboração e revisão:
  • Junior Jr
620 exibições

0 comentários

Ver todos os comentários

Conseguiu tocar?

0 Tocaram 0 Ainda não

Grave um vídeo tocando Evil Warning e nos envie!

00:00 / 00:00
outros vídeos desta música
repetir qualidade Automático
Outros vídeos desta música
00:00 / 00:00
Automático

Cifra Club Pro

Aproveite o Cifra Club com benefícios exclusivos e sem anúncios
Cifra Club Pro
Aproveite o Cifra Club com benefícios exclusivos e sem anúncios
OK