Enviar cifraEntrar

Freedom Call

Angra

Tab de baixo: Principal
exibições 116
     W                   H.           E  S S    W                 
E||-------------------|----------------------|-------------------|
B||-------------------|----------------------|-------------------|
G||-------------------|------------------9---|-------------------|
D||--2----------------|--L------------L----9-|-------------------|
A||-------------------|----------------------|--7----------------|
E||-------------------|----------------------|-------------------|
  H.           E  E     S S S S S S S S S S S S S S S S  
---------------------|----------------------------------|
---------------------|----------------------------------|
---------------------|----------------------------------|
---------------------|----------------------------------|
--L------------L-----|----------------------------------|
---------------------|--0-0---0---0-0-0---0---0-0-0-0-0-|
  S S S S S S S S S S S S S S S S    S S S S S S S S S S S S S S S S  
----------------------------------|----------------------------------|
----------------------------------|----------------------------------|
----------------------------------|----------------------------------|
----------------------------------|----------------------------------|
----------------------------------|----------------------------------|
--0-0---0---0-0-0---0---0-0-0-0-0-|--0-0---0---0-0-0---0---0-0-0-0-0-|
  S S S S S S S S S S S S S S S S    S S S S S S S S S S S S S S S S  
----------------------------------|----------------------------------|
----------------------------------|----------------------------------|
----------------------------------|----------------------------------|
----------------------------------|----------------------------------|
----------------------------------|----------------------------------|
--0-0---0---0-0-0---0---0-0-0-0-0-|--0-0---0---0-0-0---0---0-0-0-0-0-|
  S S S S S S S S S S S S S S S S    S S S S S S S S S S S S S S S S  
----------------------------------|----------------------------------|
----------------------------------|----------------------------------|
----------------------------------|----------------------------------|
----------------------------------|----------------------------------|
----------------------------------|----------------------------------|
--0-0---0---0-0-0---0---0-0-0-0-0-|--0-0---0---0-0-0---0---0-0-0-0-0-|
  S S S S S S S S S S S S S S S S    E.  E.  Q.     S S S S  
----------------------------------|-------------------------|
----------------------------------|-------------------------|
----------------------------------|-------------------------|
----------------------------------|-------------------------|
----------------------------------|-------------------------|
--0-0---0---0-0-0---0---0-0-0-0-0-|--2---2---0------0---0-0-|
  S S S S S S S S S S S S S S S S    S S S S S S S S S S S S S S S S  
----------------------------------|----------------------------------|
----------------------------------|----------------------------------|
----------------------------------|----------------------------------|
----------------------------------|----------------------------------|
----------------------------------|----------------------------------|
--0-0---0---0-0-0---0---0-0-0-0-0-|--0-0---0---0-0-0---0---0-0-0-0-0-|
  S S S S S S S S S S S S S S S S    E.  E.  Q.     S S S S  
----------------------------------|-------------------------|
----------------------------------|-------------------------|
----------------------------------|-------------------------|
----------------------------------|-------------------------|
----------------------------------|-------------------------|
--0-0---0---0-0-0---0---0-0-0-0-0-|--2---2---0------0---0-0-|
  S S S S S S S S S S S S E  E     E.  E.  Q    S S S S E   
--------------------------------|--------------------------|
--------------------------------|--------------------------|
--------------------------------|--------------------------|
--------------------------------|--------------------------|
--------------------------------|--------------------------|
--0-0---0---0-0-0---0-0-0-0-----|--2---2---0----0-0-0-0----|
  S S S S E  S S S S E  S S S S    E.  E.  Q    S S S S E   
--------------------------------|--------------------------|
--------------------------------|--------------------------|
--------------------------------|--------------------------|
--------------------------------|--------------------------|
--------------------------------|--------------------------|
--0-0-0-0----0-0-0-0----0-0-0-0-|--2---2---0----0-0-0-0----|
  S S S S E  S S S S E  S S S S    H        E.  E.  E     H        H         
--------------------------------|----------------------|--------------------|
--------------------------------|----------------------|--------------------|
--------------------------------|----------------------|--------------------|
--------------------------------|----------------------|--------------------|
--------------------------------|----------------------|--------------------|
--0-0-0-0----0-0-0-0----0-0-0-0-|--4--------4---4---4--|--2--------2--------|
  S S S S S S S S S S S S S S S S    S S S S S S S S S S S S S S S S  
----------------------------------|----------------------------------|
----------------------------------|----------------------------------|
----------------------------------|----------------------------------|
----------------------------------|----------------------------------|
--4-4-4-4-4-4-4-4-4-4-4-4-4-4-4-4-|--4-4-4-4-4-4-4-4-4-4-4-4-4-4-4-4-|
----------------------------------|----------------------------------|
  S S S S S S S S S S S S S S S S    S S S S S S S S S S S S S S S S  
----------------------------------|----------------------------------|
----------------------------------|----------------------------------|
----------------------------------|----------------------------------|
----------------------------------|----------------------------------|
--4-4-4-4-4-4-4-4-4-4-4-4-4-4-4-4-|--5-5-5-5-5-5-5-5-5-5-5-5-5-5-5-5-|
----------------------------------|----------------------------------|
  S S S S S S S S S S S S S S S S    S S S S S S S S S S S S S S S S  
----------------------------------|----------------------------------|
----------------------------------|----------------------------------|
----------------------------------|----------------------------------|
----------------------------------|----------------------------------|
--4-4-4-4-4-4-4-4-4-4-4-4-4-4-4-4-|--7-7-7-7-7-7-7-7-7-7-7-7-7-7-7-7-|
----------------------------------|----------------------------------|
  S S S S S S S S S S S S S S S S    S S S S S S S S S S S S S S S S  
----------------------------------|----------------------------------|
----------------------------------|----------------------------------|
----------------------------------|----------------------------------|
----------------------------------|----------------------------------|
--2-2-2-2-2-2-2-2-2-2-2-2-2-2-2-2-|--0-0-0-0-0-0-0-0-----------------|
----------------------------------|------------------4-4-4-4-4-4-4-4-|
  S S S S S S S S S S S S S S S S    S S S S S S S S S S S S S S S S  
----------------------------------|----------------------------------|
----------------------------------|----------------------------------|
----------------------------------|----------------------------------|
----------------------------------|----------------------------------|
--4-4-4-4-4-4-4-4-4-4-4-4-4-4-4-4-|--4-4-4-4-4-4-4-4-4-4-4-4-4-4-4-4-|
----------------------------------|----------------------------------|
  S S S S S S S S S S S S S S S S    S S S S S S S S S S S S S S S S  
----------------------------------|----------------------------------|
----------------------------------|----------------------------------|
----------------------------------|----------------------------------|
----------------------------------|----------------------------------|
--4-4-4-4-4-4-4-4-4-4-4-4-4-4-4-4-|--5-5-5-5-5-5-5-5-5-5-5-5-5-5-5-5-|
----------------------------------|----------------------------------|
  S S S S S S S S S S S S S S S S    S S S S S S S S S S S S S S S S  
----------------------------------|----------------------------------|
----------------------------------|----------------------------------|
----------------------------------|----------------------------------|
----------------------------------|----------------------------------|
--4-4-4-4-4-4-4-4-4-4-4-4-4-4-4-4-|--7-7-7-7-7-7-7-7-7-7-7-7-7-7-7-7-|
----------------------------------|----------------------------------|
  S S S S S S S S S S S S S S S S    S S S S S S S S S S S S S S S S  
----------------------------------|----------------------------------|
----------------------------------|----------------------------------|
----------------------------------|----------------------------------|
----------------------------------|----------------------------------|
--2-2-2-2-2-2-2-2-2-2-2-2-2-2-2-2-|--0-0-0-0-0-0-0-0-----------------|
----------------------------------|------------------4-4-4-4-4-4-2-0-|
  S S S S S S S S E  E  S S S S    S S S S S S S S E  E  E  E   
--------------------------------|------------------------------|
--------------------------------|------------------------------|
--------------------------------|------------------------------|
--------------------------------|------------------------------|
--------------------------------|------------------------------|
--2-2---2---2-2-2-2--2--2-2---2-|--4-4---4---4-4-4-4--4--4--4--|
  S S S S S S S S E  Q.        S S S S S S S S E  E  E  E   
----------------------------|------------------------------|
----------------------------|------------------------------|
----------------------------|------------------------------|
----------------------------|------------------------------|
--0-0---0---0-0-0-0---------|--2-2---2---2-2-2-2--2--2--2--|
----------------------------|------------------------------|
  S S S S S S S S S S S S S S S S    S S S S S S S S S S S S S S S S  
----------------------------------|----------------------------------|
----------------------------------|----------------------------------|
----------------------------------|----------------------------------|
----------------------------------|----------------------------------|
--4-4-4-4-4-4-4-4-4-4-4-4-4-4-4-4-|--4-4-4-4-4-4-4-4-4-4-4-4-4-4-4-4-|
----------------------------------|----------------------------------|
  S S S S S S S S S S S S S S S S    S S S S S S S S S S S S S S S S  
----------------------------------|----------------------------------|
----------------------------------|----------------------------------|
----------------------------------|----------------------------------|
----------------------------------|----------------------------------|
--4-4-4-4-4-4-4-4-4-4-4-4-4-4-4-4-|--5-5-5-5-5-5-5-5-5-5-5-5-5-5-5-5-|
----------------------------------|----------------------------------|
  S S S S S S S S S S S S S S S S    S S S S S S S S S S S S S S S S  
----------------------------------|----------------------------------|
----------------------------------|----------------------------------|
----------------------------------|----------------------------------|
----------------------------------|----------------------------------|
--4-4-4-4-4-4-4-4-4-4-4-4-4-4-4-4-|--7-7-7-7-7-7-7-7-7-7-7-7-7-7-7-7-|
----------------------------------|----------------------------------|
  S S S S S S S S S S S S S S S S    S S S S S S S S S S S S S S S S  
----------------------------------|----------------------------------|
----------------------------------|----------------------------------|
----------------------------------|----------------------------------|
----------------------------------|----------------------------------|
--2-2-2-2-2-2-2-2-2-2-2-2-2-2-2-2-|--0-0-0-0-0-0-0-0-----------------|
----------------------------------|------------------4-4-4-4-4-4-4-4-|
  S S S S S S S S E  E  S S S S    S S S S S S S S E  E  E  E   
--------------------------------|------------------------------|
--------------------------------|------------------------------|
--------------------------------|------------------------------|
--------------------------------|------------------------------|
--------------------------------|------------------------------|
--2-2---2---2-2-2-2--2--2-2---2-|--4-4---4---4-4-4-4--4--4--4--|
  S S S S S S S S E  E  E  E     S S S S S S S S E  E  E  E   
------------------------------|------------------------------|
------------------------------|------------------------------|
------------------------------|------------------------------|
------------------------------|------------------------------|
--0-0---0---0-0-0-0--0--0--0--|--2-2---2---2-2-2-2--2--2--2--|
------------------------------|------------------------------|
  S S S S S S S S S S S S S S S S    S S S S S S S S S S S S S S S S  
----------------------------------|----------------------------------|
----------------------------------|----------------------------------|
----------------------------------|----------------------------------|
----------------------------------|----------------------------------|
----------------------------------|----------------------------------|
--2-2-2-2-2-2-2-2-2-2-2-2-2-2-2-2-|--4-4-4-4-4-4-4-4-4-4-4-4-4-4-4-4-|
  S S S S S S S S S S S S S S S S    S S S S S S S S S S S S S S S S  
----------------------------------|----------------------------------|
----------------------------------|----------------------------------|
----------------------------------|----------------------------------|
----------------------------------|----------------------------------|
--0-0-0-0-0-0-0-0-0-0-0-0-0-0-0-0-|--2-2-2-2-2-2-2-2-2-2-2-2-2-2-2-2-|
----------------------------------|----------------------------------|
  E.  E.  Q    S S S S S S    S S S S S S S S S S S S S S S S  
---------------------------|----------------------------------|
---------------------------|----------------------------------|
---------------------------|----------------------------------|
---------------------------|----------------------------------|
---------------------------|----------------------------------|
--2---2---0----0-0-0-0-0-0-|--0-0-0-0-0-0-0-0-0-0-0-0-0-0-0-0-|
  E.  E.  Q    S S S S S S    S S S S S S S S S S S S S S S S  
---------------------------|----------------------------------|
---------------------------|----------------------------------|
---------------------------|----------------------------------|
---------------------------|----------------------------------|
---------------------------|----------------------------------|
--2---2---0----0-0-0-0-0-0-|--0-0-0-0-0-0-0-0-0-0-0-0-0-0-0-0-|
  S S S S S S S S S S S S S S S S    S S S S S S S S S S S S S S S S  
----------------------------------|----------------------------------|
----------------------------------|----------------------------------|
----------------------------------|----------------------------------|
----------------------------------|----------------------------------|
----------------------------------|----------------------------------|
--4-4-4-4-4-4-4-4-4-4-4-4-4-4-4-4-|--2-2-2-2-2-2-2-2-2-2-2-2-2-2-2-2-|
  E.  E.  Q    S S S S S S    S S S S S S S S S S S S S S S S  
---------------------------|----------------------------------|
---------------------------|----------------------------------|
---------------------------|----------------------------------|
---------------------------|----------------------------------|
---------------------------|----------------------------------|
--2---2---0----0-0-0-0-0-0-|--0-0-0-0-0-0-0-0-0-0-0-0-0-0-0-0-|
  E.  E.  Q    S S S S S S    S S S S S S S S S S S S S S S S  
---------------------------|----------------------------------|
---------------------------|----------------------------------|
---------------------------|----------------------------------|
---------------------------|----------------------------------|
---------------------------|----------------------------------|
--2---2---0----0-0-0-0-0-0-|--0-0-0-0-0-0-0-0-0-0-0-0-0-0-0-0-|
  S S S S S S S S S S S S S S S S    S S S S S S S S S S S S S S S S  
----------------------------------|----------------------------------|
----------------------------------|----------------------------------|
----------------------------------|----------------------------------|
----------------------------------|----------------------------------|
----------------------------------|----------------------------------|
--4-4-4-4-4-4-4-4-4-4-4-4-4-4-4-4-|--2-2-2-2-2-2-2-2-2-2-2-2-2-2-2-2-|
  W                   W                   H.           E  E   
-------------------|-------------------|---------------------|
-------------------|-------------------|---------------------|
-------------------|-------------------|---------------------|
-------------------|-------------------|---------------------|
--4----------------|--L----------------|--4------------L--4--|
-------------------|-------------------|---------------------|
  W                   H.           E  E     W                 
-------------------|---------------------|-------------------|
-------------------|---------------------|-------------------|
-------------------|---------------------|-------------------|
-------------------|---------------------|-------------------|
--5----------------|--4------------L--4--|--5----------------|
-------------------|---------------------|-------------------|
  W                   W                   H        H         
-------------------|-------------------|--------------------|
-------------------|-------------------|--------------------|
-------------------|-------------------|--------------------|
-------------------|-------------------|--------------------|
--4----------------|--2----------------|--0-----------------|
-------------------|-------------------|-----------0--------|
  H        H           W                   W                 
--------------------|-------------------|-------------------|
--------------------|-------------------|-------------------|
--------------------|-------------------|-------------------|
--------------------|-------------------|-------------------|
--------------------|--4----------------|--5----------------|
--0-----------------|-------------------|-------------------|
  W                   W                   W                   W                 
-------------------|-------------------|-------------------|-------------------|
-------------------|-------------------|-------------------|-------------------|
-------------------|-------------------|-------------------|-------------------|
-------------------|-------------------|-------------------|-------------------|
--4----------------|--2----------------|--0----------------|-------------------|
-------------------|-------------------|-------------------|--0----------------|
  Q.     Q    E  Q       Q    Q    Q    Q       Q    Q    E  Q    E   
----------------------|----------------------|-----------------------|
----------------------|----------------------|-----------------------|
----------------------|----------------------|-----------------------|
----------------------|----------------------|-----------------------|
--4------4-------4----|--L----4----4---------|-------5-------5-------|
----------------------|----------------------|-----------------------|
  Q    E  Q    E  Q       H.           E  E     W                 
-----------------------|---------------------|-------------------|
-----------------------|---------------------|-------------------|
-----------------------|---------------------|-------------------|
-----------------------|---------------------|-------------------|
--5-------5-------5----|--4------------L-----|--4----------------|
-----------------------|---------------------|-------------------|
  Q    Q    E  Q    E     Q    E  Q    E  Q       W                 
-----------------------|-----------------------|-------------------|
-----------------------|-----------------------|-------------------|
-----------------------|-----------------------|-------------------|
-----------------------|-----------------------|-------------------|
-------5-------5-------|--5-------5-------5----|--4----------------|
-----------------------|-----------------------|-------------------|
  W                   Q    Q    Q    Q       Q    Q    Q    Q     
-------------------|----------------------|----------------------|
-------------------|----------------------|----------------------|
-------------------|----------------------|----------------------|
-------------------|----------------------|----------------------|
--4----------------|--5---------5---------|--5---------5---------|
-------------------|----------------------|----------------------|
  Q    Q    Q    Q       Q    Q    Q    Q       S S S S S S Q    E  S E.   
----------------------|----------------------|----------------------------|
----------------------|----------------------|----------------------------|
----------------------|----------------------|----------------------------|
----------------------|----------------------|----------------------------|
--2---------2---------|--2---------2---------|----------------------------|
----------------------|----------------------|--2-2-2-2-2-2-2----2--2-2---|
  E  S S S E.  E  S S S E.     S S S S S S Q    E  E  E   
----------------------------|----------------------------|
----------------------------|----------------------------|
----------------------------|----------------------------|
----------------------------|----------------------------|
----------------------------|--0-0-0-0-0-0-0----0--0--0--|
--4--4-4-4-4---4--4-4-4-4---|----------------------------|
  E  S S S E.  E  S S S E.     E  S S E  E  S E  S E  E   
----------------------------|----------------------------|
----------------------------|----------------------------|
----------------------------|----------------------------|
----------------------------|----------------------------|
--2--2-2-2-2---2--2-2-2-2---|----------------------------|
----------------------------|--2--2-2-2--2--2-2--2-2--2--|
  E  S S E  E  S E  S E  E     E  S S E  E  S E  S E  E   
----------------------------|----------------------------|
----------------------------|----------------------------|
----------------------------|----------------------------|
----------------------------|----------------------------|
----------------------------|--0--0-0-0--0--0-0--0-0--0--|
--4--4-4-4--4--4-4--4-4--4--|----------------------------|
  E  S S E  E  S E  S S S E     E.  E.  Q    S S S S S S  
-----------------------------|---------------------------|
-----------------------------|---------------------------|
-----------------------------|---------------------------|
-----------------------------|---------------------------|
--2--2-2-2--2--2-2--2-2-2-2--|---------------------------|
-----------------------------|--2---2---0----0-0-0-0-0-0-|
  S S S S S S S S S S S S S S S S    E.  E.  Q    S S S S S S  
----------------------------------|---------------------------|
----------------------------------|---------------------------|
----------------------------------|---------------------------|
----------------------------------|---------------------------|
----------------------------------|---------------------------|
--0-0-0-0-0-0-0-0-0-0-0-0-0-0-0-0-|--2---2---0----0-0-0-0-0-0-|
  S S S S S S S S S S S S S S S S    S S S S S S S S S S S S S S S S  
----------------------------------|----------------------------------|
----------------------------------|----------------------------------|
----------------------------------|----------------------------------|
----------------------------------|----------------------------------|
----------------------------------|----------------------------------|
--0-0-0-0-0-0-0-0-0-0-0-0-0-0-0-0-|--4-4-4-4-4-4-4-4-4-4-4-4-4-4-4-4-|
  S S S S S S S S S S S S S S S S    E.  E.  Q    S S S S S S  
----------------------------------|---------------------------|
----------------------------------|---------------------------|
----------------------------------|---------------------------|
----------------------------------|---------------------------|
----------------------------------|---------------------------|
--2-2-2-2-2-2-2-2-2-2-2-2-2-2-2-2-|--2---2---0----0-0-0-0-0-0-|
  S S S S S S S S S S S S S S S S    E.  E.  Q    S S S S S S  
----------------------------------|---------------------------|
----------------------------------|---------------------------|
----------------------------------|---------------------------|
----------------------------------|---------------------------|
----------------------------------|---------------------------|
--0-0-0-0-0-0-0-0-0-0-0-0-0-0-0-0-|--2---2---0----0-0-0-0-0-0-|
  S S S S S S S S S S S S S S S S    S S S S S S S S S S S S S S S S  
----------------------------------|----------------------------------|
----------------------------------|----------------------------------|
----------------------------------|----------------------------------|
----------------------------------|----------------------------------|
----------------------------------|----------------------------------|
--0-0-0-0-0-0-0-0-0-0-0-0-0-0-0-0-|--4-4-4-4-4-4-4-4-4-4-4-4-4-4-4-4-|
  S S S S S S S S S S S S S S S S    E.  E.  H        E   
----------------------------------|----------------------|
----------------------------------|----------------------|
----------------------------------|----------------------|
----------------------------------|----------------------|
----------------------------------|----------------------|
--2-2-2-2-2-2-2-2-2-2-2-2-2-2-2-2-|--2---2---0--------L--|
  E.  E.  H        E     E.  E.  H        E     E.  E.  H        E   
----------------------|----------------------|----------------------|
----------------------|----------------------|----------------------|
----------------------|----------------------|----------------------|
----------------------|----------------------|----------------------|
----------------------|----------------------|----------------------|
--0---0---0--------L--|--2---2---0--------L--|--0---0---0--------L--|
  E.  E.  H        E     S E  E  S S E  E  S E  S S  
----------------------|-----------------------------|
----------------------|-----------------------------|
----------------------|-----------------------------|
----------------------|-----------------------------|
----------------------|-----------------------------|
--2---2---0--------L--|--0-0--0--0-0-0--0--0-0--0-0-|
  S E  E  S S E  E  S E  S S    S E  E  S S E  E  S E  S S  
-----------------------------|-----------------------------|
-----------------------------|-----------------------------|
-----------------------------|-----------------------------|
-----------------------------|-----------------------------|
-----------------------------|-----------------------------|
--0-0--0--0-0-0--0--0-0--0-0-|--0-0--0--0-0-0--0--0-0--0-0-|
  E.  E.  Q.     E  S S    S E  E  S S E  E  S E  S S  
------------------------|-----------------------------|
------------------------|-----------------------------|
------------------------|-----------------------------|
------------------------|-----------------------------|
------------------------|-----------------------------|
--2---2---0------0--0-0-|--0-0--0--0-0-0--0--0-0--0-0-|
  S E  E  S S E  E  S E  S S    S E  E  S S E  E  S E  S S  
-----------------------------|-----------------------------|
-----------------------------|-----------------------------|
-----------------------------|-----------------------------|
-----------------------------|-----------------------------|
-----------------------------|-----------------------------|
--0-0--0--0-0-0--0--0-0--0-0-|--0-0--0--0-0-0--0--0-0--0-0-|
  S E  E  S S E  E  S E  S S    S E  E  S S E  E  S E  S S  
-----------------------------|-----------------------------|
-----------------------------|-----------------------------|
-----------------------------|-----------------------------|
-----------------------------|-----------------------------|
-----------------------------|-----------------------------|
--0-0--0--0-0-0--0--0-0--0-0-|--0-0--0--0-0-0--0--0-0--0-0-|
  S E  E  S S E  E  S E  S S    S E  E  S S E  E  S E  S S  
-----------------------------|-----------------------------|
-----------------------------|-----------------------------|
-----------------------------|-----------------------------|
-----------------------------|-----------------------------|
-----------------------------|-----------------------------|
--0-0--0--0-0-0--0--0-0--0-0-|--0-0--0--0-0-0--0--0-0--0-0-|
  S E  E  S S E  E  S E  S S    S E  E  S S E  E  S E  S S  
-----------------------------|-----------------------------|
-----------------------------|-----------------------------|
-----------------------------|-----------------------------|
-----------------------------|-----------------------------|
-----------------------------|-----------------------------|
--0-0--0--0-0-0--0--0-0--0-0-|--0-0--0--0-0-0--0--0-0--0-0-|
  S E  E  S S E  E  S E  S S    S E  E  S S E  E  S E  S S  
-----------------------------|-----------------------------|
-----------------------------|-----------------------------|
-----------------------------|-----------------------------|
-----------------------------|-----------------------------|
-----------------------------|-----------------------------|
--0-0--0--0-0-0--0--0-0--0-0-|--0-0--0--0-0-0--0--0-0--0-0-|
  S E  E  S S E  E  S E  S S    S E  E  S S E  E  S E  S S  
-----------------------------|-----------------------------|
-----------------------------|-----------------------------|
-----------------------------|-----------------------------|
-----------------------------|-----------------------------|
-----------------------------|-----------------------------|
--0-0--0--0-0-0--0--0-0--0-0-|--0-0--0--0-0-0--0--0-0--0-0-|
  S E  E  S S E  E  S E  S S    S E  E  S S E  E  S E  S S  
-----------------------------|-----------------------------|
-----------------------------|-----------------------------|
-----------------------------|-----------------------------|
-----------------------------|-----------------------------|
-----------------------------|-----------------------------|
--0-0--0--0-0-0--0--0-0--0-0-|--0-0--0--0-0-0--0--0-0--0-0-|
  S E  E  S S E  E  S E  S S    S E  E  S S E  E  S E  S S  
-----------------------------|-----------------------------|
-----------------------------|-----------------------------|
-----------------------------|-----------------------------|
-----------------------------|-----------------------------|
-----------------------------|-----------------------------|
--0-0--0--0-0-0--0--0-0--0-0-|--0-0--0--0-0-0--0--0-0--0-0-|
  S E  E  S S E  E  S E  S S    S E  E  S S E  E  S E  S S  
-----------------------------|-----------------------------|
-----------------------------|-----------------------------|
-----------------------------|-----------------------------|
-----------------------------|-----------------------------|
-----------------------------|-----------------------------|
--0-0--0--0-0-0--0--0-0--0-0-|--0-0--0--0-0-0--0--0-0--0-0-|
  S E  E  S S E  E  S E  S S    S E  E  S S E  E  S E  S S  
-----------------------------|-----------------------------|
-----------------------------|-----------------------------|
-----------------------------|-----------------------------|
-----------------------------|-----------------------------|
-----------------------------|-----------------------------|
--0-0--0--0-0-0--0--0-0--0-0-|--0-0--0--0-0-0--0--0-0--0-0-|
  S E  E  S S E  E  S E  S S    S E  E  S S E  E  S E  S S  
-----------------------------|-----------------------------|
-----------------------------|-----------------------------|
-----------------------------|-----------------------------|
-----------------------------|-----------------------------|
-----------------------------|-----------------------------|
--0-0--0--0-0-0--0--0-0--0-0-|--0-0--0--0-0-0--0--0-0--0-0-|
  S E  E  S S E  E  S E  S S    S E  E  S S E  E  S E  S S  
-----------------------------|-----------------------------|
-----------------------------|-----------------------------|
-----------------------------|-----------------------------|
-----------------------------|-----------------------------|
-----------------------------|-----------------------------|
--0-0--0--0-0-0--0--0-0--0-0-|--0-0--0--0-0-0--0--0-0--0-0-|
  S E  E  S S E  E  S E  S S    S E  E  S S E  E  S E  S S   
-----------------------------|-----------------------------||
-----------------------------|-----------------------------||
-----------------------------|-----------------------------||
-----------------------------|-----------------------------||
-----------------------------|-----------------------------||
--0-0--0--0-0-0--0--0-0--0-0-|--0-0--0--0-0-0--0--0-0--0-0-||

Duration Legend
---------------
W - whole
H - half
Q - quarter
E - 8th
S - 16th
T - 32nd
X - 64th
. - note dotted
|-n-|  - n-tuplets
Tablature Legend
----------------
L - tied note
x - dead note
g - grace note
(n) - ghost note
> - accentuded note
NH - natural harmonic
AH - artificial harmonic
TH - tapped harmonic
SH - semi harmonic
PH - pitch harmonic
h - hammer on
p - pull off
b - bend
br - bendRelease
pb - preBend
pbr - preBendRelease
brb - bendReleaseBend
\n/ - tremolo bar dip
\n - tremolo bar dive
-/n - tremolo bar Release up
/n\ - tremolo bar inverted dip
/n - tremolo bar return
-\n - tremolo bar Release down
S - shift slide
s - legato slide
/ -  slide into from below or out of upwards
\ -  slide into from above or out of downwards
~ - vibrato
W - wide vibrato
tr - trill
TP - tremolo picking
T - tapping
S - slap
P - pop
< - fade in
^ - brush up
v - brush down
  • 1
  • 2
  • 3
  • 4
  • 5
  • 6
  • 7
  • 8
  • 9
  • 10
  • 11
  • 12
    Colaboração e revisão:
    • marcos rolim

    0 comentários

      mostrar mais comentários

      Conseguiu tocar?

      0tocaram0ainda não

      Grave um vídeo tocando Freedom Call e mande pra gente!

      00:00 / 00:00
      outros vídeos desta música
      repetirqualidadeautomática
      • automática
      Outro vídeos desta música
        00:00 / 00:00
        automática
        • automática
        Acordes para:violão e guitarra
        dificuldadeexibiçõescontribuições
        1 versão de Tab de baixoexibiçõescontribuições
        2 versões de Guitar Proformatodownloadscontribuição
        fecharplay/pause subir/descer velocidade
        fechar
        OK