Cifra Club

Rebirth

Angra

Cifra: Solo (violão e guitarra)
tom: Am
[Solo 1]

Parte 1 de 8
E|------------------------------------------|
B|-10b12rb12~-------------------------------|
G|------------------------------------------|
D|------------------------------------------|
A|------------------------------------------|
E|------------------------------------------|

Parte 2 de 8
E|----------12h14h15p14p12------------------|
B|-12h14h15----------------15-14-12---------|
G|------------------------------------------|
D|------------------------------------------|
A|------------------------------------------|
E|------------------------------------------|

E|-15/19b21----b21r19p17-19~----------------|
B|------------------------------------------|
G|------------------------------------------|
D|------------------------------------------|
A|------------------------------------------|
E|------------------------------------------|

Parte 3 de 8
E|----------14----14-15p14-------14---------|
B|-17b19-------17----------17-15----17p14---|
G|------------------------------------------|
D|------------------------------------------|
A|------------------------------------------|
E|------------------------------------------|

E|------------------------------------------|
B|-15p14-------14---------------------------|
G|-------16-14----14-16~--------------------|
D|------------------------------------------|
A|------------------------------------------|
E|------------------------------------------|

Parte 4 de 8
E|-----19----17/19\17-----------------------|
B|-----------------------19----17/19\17-----|
G|-/16----16----------16----16----------16--|
D|------------------------------------------|
A|------------------------------------------|
E|------------------------------------------|

E|------------------------------------------|
B|------------------------------------------|
G|-19-16-18/19\18~~18b19r18b19r18--16~\-----|
D|------------------------------------------|
A|------------------------------------------|
E|------------------------------------------|

Parte 5 de 8
E|------------------------------------------|
B|------------------------------------------|
G|-------------------------------11-12p11---|
D|-------12-16-------12-16p12-16------------|
A|-12-14-------12-14------------------------|
E|------------------------------------------|

E|------------------------------------------|
B|----------------------12-------14p10------|
G|----------12-14p12-------14-12-------12---|
D|-16-12-16----------16---------------------|
A|------------------------------------------|
E|------------------------------------------|

E|------------------------------------------|
B|-15p12-14p12-------15-14-13-12------------|
G|-------------14-13-------------14-13-12-11|
D|------------------------------------------|
A|------------------------------------------|
E|------------------------------------------|

E|------------12-11-10-9-12b14r12p10--------|
B|-12-11-10-9------------------------12\----|
G|------------------------------------------|
D|------------------------------------------|
A|------------------------------------------|
E|------------------------------------------|

Parte 6 de 8
E|-/14-14-14\10--10-10-10/12--12-12-12\7----|
B|------------------------------------------|
G|------------------------------------------|
D|------------------------------------------|
A|------------------------------------------|
E|------------------------------------------|

E|-7-7-7/10--10-10-9~~h10p9p7-9~------------|
B|------------------------------------------|
G|------------------------------------------|
D|------------------------------------------|
A|------------------------------------------|
E|------------------------------------------|

Parte 7 de 8
          T                  T
E|-10h14-15p14p10h14p10---------------------|
B|----------------------h14-15p14p10h14p10--|
G|------------------------------------------|
D|------------------------------------------|
A|------------------------------------------|
E|------------------------------------------|

        T
E|------------------------------------------|
B|------------------------------------------|
G|-h14-16p14p11h12~-------------------------|
D|------------------------------------------|
A|------------------------------------------|
E|------------------------------------------|

E|------------------------------------------|
B|------------------------------------------|
G|-11h14p12p11------------------------------|
D|-------------14p12p11---------------------|
A|----------------------14p12p10-14\--------|
E|------------------------------------------|

Parte 8 de 8
E|-------------------17-19-21-22-21-22-24~--|
B|----------------17------------------------|
G|-------16-18-19---------------------------|
D|----16------------------------------------|
A|-17---------------------------------------|
E|------------------------------------------|

[Solo 2]

Parte 1 de 8
E|--------------15-----15-------------------|
B|-15b17r15b----15b17--15b17r15p13----------|
G|---------------------------------14~------|
D|------------------------------------------|
A|------------------------------------------|
E|------------------------------------------|

Parte 2 de 8
E|-----17----19b20r--19~--17-17h19-19\15-15~|
B|-/17----17--------------------------------|
G|------------------------------------------|
D|------------------------------------------|
A|------------------------------------------|
E|------------------------------------------|

Parte 3 de 8
E|-----20-19h20p19p17----17-----------------|
B|-/17----------------20----20b22r20p17-----|
G|------------------------------------------|
D|------------------------------------------|
A|------------------------------------------|
E|------------------------------------------|

E|------------------------------------------|
B|-20b22~-----------------------------------|
G|------------------------------------------|
D|------------------------------------------|
A|------------------------------------------|
E|------------------------------------------|

Parte 4 de 8
E|-10-12-12h13p12p10------------------------|
B|-------------------13-12p10----10-10h13---|
G|----------------------------12----------12|
D|------------------------------------------|
A|------------------------------------------|
E|------------------------------------------|

E|------------------------------------------|
B|-10---------------------------------------|
G|----12p10p9-10-12-10h12p10p9----12p10p9---|
D|-----------------------------10-----------|
A|------------------------------------------|
E|------------------------------------------|

E|------------------------------------------|
B|------------------------------------------|
G|------------------------------------------|
D|-10\5~------------------------------------|
A|------------------------------------------|
E|------------------------------------------|

Parte 5 de 8 
E|------------------------------------------|
B|------------------------------------------|
G|-9/12--12\10--10\9--9\7--7/9--9\5--5~-----|
D|------------------------------------------|
A|-7/10--10\-8---8\7--7\5--5/7--7\3---------|
E|------------------------------------------|

Parte 6 de 8
E|------------------------------------------|
B|-13b15--b15~----10------------------------|
G|-------------------12-10h12p10\9-9~-------|
D|------------------------------------------|
A|------------------------------------------|
E|------------------------------------------|

Parte 7 de 8
E|------------------------------------------|
B|-3h5p3------------------------------------|
G|-------5-4-5p4----------------------------|
D|---------------5--------------------------|
A|-----------------7-5h7\5\2--2~------------|
E|------------------------------------------|

Parte 8 de 8
E|-5--------7--------8---------15----\------|
B|-8b10~---10b12~---11b13~-----18b20~\------|
G|------------------------------------------|
D|------------------------------------------|
A|------------------------------------------|
E|------------------------------------------|
00:00 / 00:00
Outros vídeos desta música
Repetir
Outros vídeos desta música
Composição de Pedro Henrique Loureiro / Rafael Bittencourt
Colaboração e revisão:
  • Vinícius Dias
101.565 exibições
    • ½ Tom
    • Am
    • Bbm
    • Bm
    • Cm
    • C#m
    • Dm
    • Ebm
    • Em
    • Fm
    • F#m
    • Gm
    • G#m
  • Adicionar à lista

    0 comentários

    Ver todos os comentários

    Entre para oCifra Club PRO

    Tenha acesso a benefícios exclusivos no App e no Site

    • Chega de anúncios

    • Prioridade de compra em lançamentos

    • Mais recursos no app do Afinador

    • Atendimento Prioritário

    • Descontos nos produtos Cifra Club

    • Ajude a produzir mais conteúdo

    00:00 / 00:00
    Capítulos
    • Apresentação
    • Regulagem do Timbre
    • Dicas Iniciais
    • Solo 1 - Parte 1 de 8
    • Solo 1 - Parte 2 de 8
    • Solo 1 - Parte 3 de 8
    • Solo 1 - Parte 4 de 8
    • Solo 1 - Parte 5 de 8
    • Solo 1 - Parte 6 de 8
    • Solo 1 - Parte 7 de 8
    • Solo 1 - Parte 8 de 8
    • Solo 2 - Parte 1 de 8
    • Solo 2 - Parte 2 de 8
    • Solo 2 - Parte 3 de 8
    • Solo 2 - Parte 4 de 8
    • Solo 2 - Parte 5 de 8
    • Solo 2 - Parte 6 de 8
    • Solo 2 - Parte 7 de 8
    • Solo 2 - Parte 8 de 8
    • Tocando Solos - Rápido
    • Encerramento

    Cifra Club Pro

    Aproveite o Cifra Club com benefícios exclusivos e sem anúncios
    Cifra Club Pro
    Aproveite o Cifra Club com benefícios exclusivos e sem anúncios
    OK