Cifra Club

Memory

Avantasia

Cifra: Principal (violão e guitarra)
Selo Cifra Club: esta cifra foi revisada para atender aos critérios oficiais da nossa Equipe de Qualidade.
tom: E
Riff 1;
|-----------------------------------|---------------|
|------3 vezes----------------------|---------------|
|-----------------------------------|---------------|
|-----------------------------------|-5-7-4-5-2-h.a-| fazer riff 1; 3x 
|-7---5---7---10-7---10---9---5-----|-3-5-2-3-0--5--|
|---0---0---0------0----0---0---0-0-|---------------|

|-----------------------------------|---------|--------|
|---3 vezes-------------------------|---------|--------|
|-----------------------------------|---------|--------|
|-----------------------------------|-5-4-5-7-|--Break-|
|-7---5---7---10-7---10---9---5-----|-3-2-3-5-|--------|
|---0---0---0------0----0---0---0-0-|---------|--------|

Canto 1;
|---------------------------------------------------------------------|
|---------------------------------------------------------------------|
|---------------------------------------------------------------------|
|----------------2---0----3---2----------2--------------5-7-4-5-2---2-|2x
|----------------2---0----3---2----------2--------------3-5-2-3-0-5-2-|
|-00000000000000---0---00---0---00000000---000000000000---------------|

Riff 2;
|------------------------------------------------------------------|
|------------------------------------------------------------------|
|------------------------------------------------------------------|
|------------------------------------------------------------------|
|-7-0-0-5-0-0-7-0-8-0-0-10-0-8-0-7-0-0-5-0-0-7-0-8-0-0-12-0-0-10-0-|
|------------------------------------------------------------------|

|-------------------------------------------------------|
|-------------------------------------------------------|
|-------------------------------------------------------|
|-------------------------------------------------------|
|-9-----7-----9-----10-----9---10---10----9-----10---12-|
|---7-7---7-7---7-7----7-7---7----7----8-8--8-8----8----|

Refrão;
|----------------------------------------------------|
|----------------------------------------------------|
|----------------------------------------------------|
|-4-7-9-5-7-4-5-2-7-4-7-9-5-7-4-5-2-7-2~-------------|
|-2-5-7-3-5-2-3-0-5-2-5-7-3-5-2-3-0-5-3~-33333333333-|
|-----------------5-----------------5----------------|

Repetir tudo;

Passagem;
|--------------------------------------------|
|--------------------------------------------|
|--------------------------------------------|
|-5--3--5-5--8--3--3--5--3--5--3-------------|
|-5--3--3-3--6--1--3--3--3--5--3-------------|
|-3--1----3--------1-----1--3--1-00000000000-|

Dueto;
|------------------------------------------------------------|
|------------------------------------------------------------|
|-12b--12br9-12b--12br9--12~--12-12\10-10\9-9\7-7\5-7br5--7~-|
|------------------------------------------------------------|
|------------------------------------------------------------|
|------------------------------------------------------------|

|--------------------------------|
|--------------------------------|
|-----------14-12~-10-9-7br5--4~-|
|-7~-101010----------------------|
|--------------------------------|
|--------------------------------|

|-7h8p7---7h8p7---7h8-7~-|-7h8p7---7h8p7---7h8----|
|-------8-------8--------|-------8-------8-----8~-|
|------------------------|------------------------|
|------------------------|------------------------|
|------------------------|------------------------|
|------------------------|------------------------|

|-7h8p7---7h8p7---7h8-7-7b-7~-5-3-1~-|
|-------8-------8--------------------|
|------------------------------------|
|------------------------------------|
|------------------------------------|
|------------------------------------|

|--------7-8-10-8-7-12-10-8-10-8-7-|--------7-8-10-8-7----|
|-7-8-10---------------------------|-7-8-10------------8~-|
|----------------------------------|----------------------|
|-----3 vezes----------------------|----------------------|
|----------------------------------|----------------------|
|----------------------------------|----------------------|

|--5h7p5--|--7h8p7--|--8h10p8-|-10h12p10-12-12br10----------------------|
|---------|---------|---------|--------------------12b(13)~-12b(13)~~~~-|
|---------|---------|---------|-----------------------------------------|
|-trinado-|-trinado-|-trinado-|-----------------------------------------|
|---------|---------|---------|-----------------------------------------|
|---------|---------|---------|-----------------------------------------|

|-------|-------|--------|
|-------|-------|--------|
|-------|-------|--------|
|-7-----|-3-----|-5------|
|-5-----|-1-----|-3------|
|-------|-------|--------|
Outros vídeos desta música
    6.106 exibições
      • ½ Tom
      • A
      • Bb
      • B
      • C
      • Db
      • D
      • Eb
      • E
      • F
      • F#
      • G
      • Ab
    • Adicionar à lista

    Afinação da cifra

    Afinador online

      0 comentários

      Ver todos os comentários

      Entre para o Cifra Club PRO

      Tenha acesso a benefícios exclusivos no App e no Site

      • Chega de anúncios

      • Badges exclusivas

      • Mais recursos no app do Afinador

      • Atendimento Prioritário

      • Aumente seu limite de lista

      • Ajude a produzir mais conteúdo

      Cifra Club Pro

      Aproveite o Cifra Club com benefícios exclusivos e sem anúncios
      Cifra Club Pro
      Aproveite o Cifra Club com benefícios exclusivos e sem anúncios
      Ops (: Contenido disponible sólo en portugués.
      OK