Cifra Club

Bekrija Sam Sta Se Kog Tice

Bijelo Dugme

Cifra: Principal (violão e guitarra)
Selo Cifra Club: esta cifra foi revisada para atender aos critérios oficiais da nossa Equipe de Qualidade.
tom: C
           BEKRIJA SAM, STA SE KOG TICE


Solo:
E------------------------|--12b-10\7--------|-----5---7---8---9-|
H----------10-8-------8--|-----------10-8---|-------------------|
G--9999-7------9-9-7-9-9-|---------------7--|--5p6-6/7-7/8-8/9--|
D---------9--------------|----------------9-|-------------------|
A------------------------|------------------|-------------------|
E------------------------|------------------|-------------------|

E-----------------------|-----------------------------|
H-----------------------|-----12-10-------------------|
G-----9-7---------------|--8p9-----11-11109999--------|
D-7p8----9-987777-------|---------------------12-99\3-|
A----------------10-777-|-----------------------------|
E-----------------------|-----------------------------|

E---------------------------------|
H---------------------------------|
G-2/4b-4b-4b-4b-4b-4b-4b-4b-4b/1--|
D---------------------------------|
A---------------------------------|
E---------------------------------|
Outros vídeos desta música
    376 exibições
      • ½ Tom
      • A
      • Bb
      • B
      • C
      • Db
      • D
      • Eb
      • E
      • F
      • F#
      • G
      • Ab
    • Adicionar à lista

    Afinação da cifra

    Afinador online

      0 comentários

      Ver todos os comentários

      Entre para o Cifra Club PRO

      Tenha acesso a benefícios exclusivos no App e no Site

      • Chega de anúncios

      • Badges exclusivas

      • Mais recursos no app do Afinador

      • Atendimento Prioritário

      • Aumente seu limite de lista

      • Ajude a produzir mais conteúdo

      Cifra Club Pro

      Aproveite o Cifra Club com benefícios exclusivos e sem anúncios
      Cifra Club Pro
      Aproveite o Cifra Club com benefícios exclusivos e sem anúncios
      Ops (: Contenido disponible sólo en portugués.
      OK