Cifra Club

Aprenda

Iron Man

Black Sabbath

Cifra: Solo (violão e guitarra)
Tom: E
[Solo]


E|------------------------------------9-----|
B|----------------------------------9---12p9|
G|-----------------------9-11-11b13---------|
D|--------------9-9-9h11--------------------|
A|-----7-9-9/11-----------------------------|
E|-7h9--------------------------------------|

E|------------------------------------------|
B|--------9--12p9--------9--12p9--------9---|
G|-11b13----------11b13----------11b13------|
D|------------------------------------------|
A|------------------------------------------|
E|------------------------------------------|

E|------------------------------------------|
B|-12--12b14r---b14r---b14r---b14rp12p9-----|
G|------------------------------------------|
D|------------------------------------------|
A|------------------------------------------|
E|------------------------------------------|

E|-12b14r--12b14r--12b14r--9-12p9--------9--|
B|--------------------------------12b14-----|
G|------------------------------------------|
D|------------------------------------------|
A|------------------------------------------|
E|------------------------------------------|

E|-12p9--------9--12p9--------9--12p9-------|
B|------12b14----------12b14----------12b14-|
G|------------------------------------------|
D|------------------------------------------|
A|------------------------------------------|
E|------------------------------------------|

E|-9----------9--------------9--------------|
B|---12b14~-----12-9-------9---12p9-------9-|
G|-------------------11b13----------11b13---|
D|------------------------------------------|
A|------------------------------------------|
E|------------------------------------------|

E|------------------------------------------|
B|-12p9-------9-----------------------------|
G|------11b13---11p9----9-11----------------|
D|-------------------11---------------------|
A|------------------------------------------|
E|------------------------------------------|

E|---------9--------------------------------|
B|-------9---12p9---------------------------|
G|-11b13----------11b13-b13r11p9----9-------|
D|-------------------------------11---11----|
A|------------------------------------------|
E|------------------------------------------|

E|------------------------------------------|
B|------------------------------------------|
G|------------------------------------------|
D|-9h11~--9h11~--9h11~--9h11~--9h11-9h11----|
A|------------------------------------------|
E|------------------------------------------|

E|------------------------------------------|
B|------------------------------------------|
G|------------------------------------------|
D|-9h11~--9h11~--9h11~--9h11~--9h11-9h11----|
A|------------------------------------------|
E|------------------------------------------|
Composição de Bill Ward / Geezer Butler / Ozzy Osbourne / Tony Iommi
Colaboração e revisão:
  • Vinícius Dias
  • Victor Suzano
  • Kaique Cruz
15.398 exibições
    • ½ Tom
    • A
    • Bb
    • B
    • C
    • Db
    • D
    • Eb
    • E
    • F
    • F#
    • G
    • Ab
  • Adicionar à lista

    0 comentários

    Mostrar mais comentários
    00:00 / 00:00
    outros vídeos desta música
    repetir qualidade Automático
    Outros vídeos desta música
    00:00 / 00:00
    Automático
    Capítulos
    • Tocando a música
    • Dicas Iniciais / Equipamentos
    • Solo
    • Encerramento
    • Ficha Técnica

    Cifra Club Pro

    Aproveite o Cifra Club com benefícios exclusivos e sem anúncios
    7 dias grátis
    Cifra Club Pro
    Aproveite o Cifra Club com benefícios exclusivos e sem anúncios
    7 dias grátis
    OK