Cifra Club

All The Small Things

blink-182

Cifra: Versão 2 (violão e guitarra)
Tom: C
INTRO: 

e-----------------------------------------------------------------------------------------
b-----------------------------------------------------------------------------------------
g-----55555555-1010101010101010-77777777--------55555555-1010101010101010-77777777--------
d-5-3-55555555-1010101010101010-77777777-xxx-55-55555555-1010101010101010-77777777-xxx-55-
a-5-3-33333333-88888888---------55555555-xxx-55-33333333-88888888---------55555555-xxx-55-
e-3-1------------------------------------xxx-33------------------------------------xxx-33-

Verse in Palm Muted

C5         G5           F5
 All the , small things
      G5               C5
 True care, truth brings
       G5           F5
 I'll take, one lift
      G5             C5
 Your ride, best trip
     G5       F5
 Always, I know
         G5           C5
 You'll be at my show
      G5         F5         G5      C5
 Watching, waiting, commiserating
                           
Say it ain't so, I will not go, turn the lights off, carry me home
C5
Na, na na, na na, na
            G5
na, na na, na na  
             F5             
na, na na, na na, na na, na 2X 

e-------------------------------------------------------------------------------
b-------------------------------------------------------------------------------
g-55555555-10101010-9999-77777777--------55555555-10101010-9999-77777777--------
d-55555555-10101010-9999-77777777-xxx-55-55555555-10101010-9999-77777777-xxx-55-
a-33333333-8888-----7777-55555555-xxx-55-33333333-8888-----7777-55555555-xxx-55-
e---------------------------------xxx-33---------------------------------xxx-33-
               
Verse in Palm Muted

C5        G5          F5
 Late night, come home
          G5        C5
 Work sucks, I know
               G5            F5        G                        C5
 She left me roses by the stairs, surprises let me know she cares
                            
Say it ain't so, I will not go, turn the lights off, carry me home
C5
Na, na na, na na, na
            G5
na, na na, na na  
             F5             
na, na na, na na, na na, na 2X 

(C5 F5 D5 C5 F5 G5)2X
ESTE SOLO É TOCADO JUNTO COM PALM MUTING 
e|------------------------------------------------------------------|
B|------------------------------------------------------------------|
G|--5---5---5---5---5---5---5---5---5---5---5---5---4---4---4---4---|
D|----5---5---5---5---5---5---5---5---5---5---5---5---5---5---5---5-| 3x
A|------------------------------------------------------------------|
E|------------------------------------------------------------------|

C5                             G5                    F5            C5 
Say it ain't so, I will not go, turn the lights off, carry me home
                                       G5                      F5
Keep your head still, I'll be your thrill, the night go on, my 
              C5
little windmill

2 VOZ:
(Na, na na, na na, na na...)

C5                            G5                 F5              C5
Say it ain't so, I will not go, turn the lights off, carry me home
                                       G5                 F5 
Keep your head still, I'll be your thrill, the night go on, the night
                        C5
go on, my little windmill
exibições 172.646
Acordes para:

    0 comentários

    mostrar mais comentários

    Conseguiu tocar?

    2 tocaram 1 ainda não

    Grave um vídeo tocando All The Small Things e mande pra gente!

    00:00 / 00:00
    outros vídeos desta música
    repetir qualidade Automático
    Outros vídeos desta música
    00:00 / 00:00
    Automático
    Capítulos
    • Início
    • Tocando a música
    • Configuração dos Efeitos
    • Acordes da Introdução
    • Tocando Introdução
    • Ensinando Base da Introdução
    • Ensinando Riff da Introdução
    • Tocando Primeira Parte
    • Ensinando Primeira Parte
    • Tocando Refrão
    • Ensinando Refrão
    • Tocando Variação da Introdução
    • Ensinando Variação do Riff de Introdução
    • Acordes da Ponte
    • Tocando Variações e Ponte
    • Ensinando Base da Ponte
    • Ensinando Riff da Ponte
    • Tocando Final
    • Ensinando Final
    • Encerramento
    OK