Cifra Club

Aprenda

Dammit

Blink-182

Cifra: Versão 3 (violão e guitarra)
Tom: F
 Dammit

 *  Deixar a nota soar
( ) Abafado
Se a sua Banda tiver duas guitarras no início, uma faz a introdução e a outra faz:
E|----------------------------| 
B|----------------------------| 
G|--55555-------22222---------| 
D|--55555-55555-22222-333333--|2x 
A|--33333-55555-00000-333333--| 
E|--------33333-------111111--| 
 
intro: 
E|--------------------------------------------| 
B|--------------------------------------------| 
G|--------------------------------------------| 
D|---------2---------2---------2-----2-2-0----|4x 
A|-3-3-5-5-------5-5---0-0-5-5----------------|
E|-----------3-3-----------------1-1----------| 

E|--------------------------|-Na segunda vez----| 
B|--*-6x--------*-6x--------|-------------------| 
G|--5-(5)-*-6x--2-(2)-*-6x--|-------------------| 
D|--5-(5)-5-(5)-2-(2)-3-(3)-|-3-3-3-3-3-3-------|2x 
A|--3-(3)-5-(5)-0-(0)-3-(3)-|-3-3-3-3-3-3-------| 
E|--------3-(3)-------1-(1)-|-1-1-1-1-1-1-------| 

E|----------------------------| 
B|----------------------------| 
G|--55555-------22222-*-*-*---| 
D|--55555-55555-22222-3-3-3---|2x 
A|--33333-55555-00000-3-3-3---| 
E|--------33333-------1-1-1---| 

E|--------------------------------------------| 
B|--------------------------------------------| 
G|--------------------------------------------| 
D|---------2---------2---------2-----2-2-0----|2x 
A|-3-3-5-5-------5-5---0-0-5-5----------------|
E|-----------3-3-----------------1-1----------| 

E|--------------------------|-Na segunda vez----| 
B|--*-6x--------*-6x--------|-------------------| 
G|--5-(5)-*-6x--2-(2)-*-6x--|-------------------| 
D|--5-(5)-5-(5)-2-(2)-3-(3)-|-3-3-3-3-3-3-------|2x 
A|--3-(3)-5-(5)-0-(0)-3-(3)-|-3-3-3-3-3-3-------| 
E|--------3-(3)-------1-(1)-|-1-1-1-1-1-1-------| 

E|----------------------------| 
B|----------------------------| 
G|--55555-------22222-*-*-*---| 
D|--55555-55555-22222-3-3-3---|2x 
A|--33333-55555-00000-3-3-3---| 
E|--------33333-------1-1-1---| 
E|---------------------------------------| 
B|---------------------------------------| 
G|--55555555----------22222222-----------| 
D|--55555555-55555555-22222222-33333333--|2x 
A|--33333333-55555555-00000000-33333333--| 
E|-----------33333333----------11111111--| 

E|--------------------------------------------| 
B|--------------------------------------------| 
G|--------------------------------------------| 
D|---------2---------2---------2-----2-2-0----|2x 
A|-3-3-5-5-------5-5---0-0-5-5----------------|
E|-----------3-3-----------------1-1----------| 

E|--------------------------|-Na segunda vez----| 
B|--*-6x--------*-6x--------|-------------------| 
G|--5-(5)-*-6x--2-(2)-*-6x--|-------------------| 
D|--5-(5)-5-(5)-2-(2)-3-(3)-|-3-3-3-3-3-3-------|2x 
A|--3-(3)-5-(5)-0-(0)-3-(3)-|-3-3-3-3-3-3-------| 
E|--------3-(3)-------1-(1)-|-1-1-1-1-1-1-------| 

E|----------------------------| 
B|----------------------------| 
G|--55555-------22222-*-*-*---| 
D|--55555-55555-22222-3-3-3---|2x 
A|--33333-55555-00000-3-3-3---| 
E|--------33333-------1-1-1---| 

E|---------------------------------------| 
B|---------------------------------------| 
G|--55555555----------22222222-----------| 
D|--55555555-55555555-22222222-33333333--|2x 
A|--33333333-55555555-00000000-33333333--| 
E|-----------33333333----------11111111--| 

E|-*------*-*----*-----------------------| 
B|-5-*----3-5-*--5-*----3-5---3-5---------| 
G|---5-*------5----5-*------5-----5------| 
D|-----5-------------5-------------------|2x 
A|---------------------------------------| 
E|---------------------------------------| 

E|-----------------------------------------| 
B|-----------------------------------------| 
G|-----------------------------------------| 
D|---------2---------2---------2-----2-2-0-|4x 
A|-3-3-5-5-------5-5---0-0-5-5-------------|
E|-----------3-3-----------------1-1-------|

E|---------| 
B|----*----| 
G|----5----| 
D|----5----| 
A|----3----|
E|---------|
Composição de Mark Hoppus / Scott Mad Dog Raynor / Tom DeLonge
Colaboração e revisão:
  • Gianni Brotto
  • Gianni Brotto
7.651 exibições
    • ½ Tom
    • A
    • Bb
    • B
    • C
    • Db
    • D
    • Eb
    • E
    • F
    • F#
    • G
    • Ab
  • Adicionar à lista

    0 comentários

    Mostrar mais comentários

    Conseguiu tocar?

    0 Tocaram 0 Ainda não

    Grave um vídeo tocando Dammit e mande pra gente!

    00:00 / 00:00
    outros vídeos desta música
    repetir qualidade Automático
    Outros vídeos desta música
    00:00 / 00:00
    Automático

    Cifra Club Pro

    Aproveite o Cifra Club com benefícios exclusivos e sem anúncios
    7 dias grátis
    Cifra Club Pro
    Aproveite o Cifra Club com benefícios exclusivos e sem anúncios
    7 dias grátis
    OK