Cifra Club

First Date

blink-182

Cifra: Versão 5 (violão e guitarra)
Tom: G
(Live)

PS: Música inteira com distorção

                     Riff 1
e|-0----------|-------------|-------------|-------------|     
B|--1-----1---|-3-1-----1---|-3-1-----1---|-3-1---0-----|     
G|----0-----0-|-----0-----0-|-----0-----0-|-----0-------| 
D|------------|-------------|-------------|-------------|       
A|------------|-------------|-------------|-------------|     
E|------------|-------------|-------------|-------------|    

   Riff 2          Riff 3
e|--------|       e|-----|
B|--------|       B|-----|
G|--5~~---|       G|-(5)-| ( Abafado   
D|--5~~---|       D|-----|
A|--3~~---|       A|-----|
E|--------|       E|-----|

                       Riff 4
e|--x-x-x-x-----x-x-x-x-----x-x-x-x-----x-x-x-----x-x-x-|
B|--x-x-x-x-----x-x-x-x-----2-2-2-2-----x-x-x-----x-x-x-|
G|--5-5-5-5-----4-4-4-4-----2-2-2-2-----x-x-x-----x-x-x-|
D|--5-5-5-5-----5-5-5-5-----2-2-2-2-----3-3-3-----5-5-5-|
A|--3-3-3-5-----2-2-2-2-----------------3-3-3-----5-5-5-|
E|--------------------------------------1-1-1-----3-3-3-|

                       Riff 5
e|--x-x-x-x-----x-x-x-x-----x-x-x-x-----x-x-x-----x-x-x-|
B|--x-x-x-x-----x-x-x-x-----2-2-2-2-----x-x-x-----x-x-x-|
G|--5-5-5-5-----4-4-4-4-----2-2-2-2-----x-x-x-----x-x-x-|
D|--5-5-5-5-----5-5-5-5-----2-2-2-2-----3-3-3-----5-5-5-|
A|--3-3-3-5-----2-2-2-2-----------------3-3-3-----5-5-5-|
E|--------------------------------------1-1-1-----3-3-3-|

            Riff 6 
e|--x-x-x---x-x-x---x-x-x---x-x-x--|
B|--x-x-x---x-x-x---x-x-x---x-x-x--|
G|--5-5-5---x-x-x---x-x-x---x-x-x--|
D|--5-5-5---2-2-2---3-3-3---5-5-5--| ( Abafado)
A|--3-3-3---2-2-2---3-3-3---5-5-5--|
E|----------0-0-0---1-1-1---3-3-3--|

                Riff 7

e|--x-x-x---x-x/x-x---x-x/ x-x---x-x-x-|
B|--x-x-x---x-x/x-x---x-x/ x-x---x-x-x-|
G|--5-5-5---9-9/5-5--10-10 5-5---7-7-7-|
D|--x-x-x---x-x/x-x---x-x/ x-x---x-x-x-|
A|--3-3-3---7-7/3-3---8-8/ 3-3---5-5-5-|
E|-------------------------------------|

                              Riff 8
e|--x-x-x--x-x-x--x-x-x--x-x-x--x-x-x--x-x-x--x-x-x--x--x--x---x-x-x--x-x-x--|
B|--x-x-x--x-x-x--x-x-x--x-x-x--x-x-x--x-x-x--x-x-x--x--x--x---x-x-x--x-x-x--|
G|--5-5-5--4-4-4--5-5-5--7-7-7--5-5-5--9-9-9--5-5-5--10-10-10--5-5-5--7-7-7--|
D|--5-5-5--5-5-5--5-5-5--7-7-7--5-5-5--9-9-9--5-5-5--10-10-10--5-5-5--7-7-7--|
A|--3-3-3--2-2-2--3-3-3--5-5-5--3-3-3--7-7-7--3-3-3--8--8--8---3-3-3--5-5-5--|
E|---------------------------------------------------------------------------|

Ordem da música:

Intro: Riff 1 > Soar Riff 2

Verso 1:

|---- Nessa parte fica só o baixo ----|
In the car, I just can't wait
To pick you up on our very first date       
Is it cool if I hold your hand?
Is it wrong if I think it's lame to dance?

|---- Agora entra o Riff 3 ----|

Do you like my stupid hair?
Would you guess that I didn't know what to wear?
I'm just scared of what you think
You make me nervous so I really can't eat

Pré-refrão:

|----------------- Riff 4 -----------------|
Lets go! Don't wait! This night's almost over!
Honest, let's make this night last forever!

Refrão:

|----------------- Riff 5 -----------------| 
Forever and ever, let's make this last forever!
Forever and ever, let's make this last forever!

Intro:Riff 1 > Soar Riff 2

Verso 2:

|---- Nessa parte fica só o baixo ----|

When you smile, I melt inside...
I'm not worthy for a minute of your time
I really wish it was only me and you
I'm jealous of everybody in the room

|---- Agora entra o Riff 3 ----|

Please, don't look at me with those eyes
Please, don't hint that you're capable of lies
I dread a thought of our very first kiss
A target that I'm probably gonna miss...

Pré-refrão:

|----------------- Riff 4 -----------------|
Lets go! Don't wait! This night's almost over!
Honest, let's make this night last forever!

Refrão:

|----------------- Riff 5 -----------------| 
Forever and ever, let's make this last forever!
Forever and ever, let's make this last forever!

Pós-Refrão: Riff 6 (abafado) 2x

Interlude: Riff 7  2x

           Riff 8  1x

Pré-refrão:

|----------------- Riff 4 -----------------|
Lets go! Don't wait! This night's almost over!
Honest, let's make this night last forever!

Refrão:

|----------------- Riff 5 -----------------| 
Forever and ever, let's make this last forever!
Forever and ever, let's make this last forever!

|-------- Tocar riff 1 aqui e cantar ---------|
Forever and ever, let's make this last forever!
Forever and ever, let's make this last forever!

Final:   C5
       e|-x-|   
       B|-x-|
       G|-5-|
       D|-5-| 
       A|-3-|
       E|---|

Espero que entendam.Está tudo do jeito que o Tom toca.Então não tem erro, só ouvir e pegar ! :D
exibições 2.146
Acordes para:
    Composição: blink-182 Colaboração e revisão:
    • Fabrício Santos

    0 comentários

    mostrar mais comentários

    Conseguiu tocar?

    0 tocaram 0 ainda não

    Grave um vídeo tocando First Date e mande pra gente!

    00:00 / 00:00
    outros vídeos desta música
    repetir qualidade Automático
    Outros vídeos desta música
    00:00 / 00:00
    Automático
    OK