Cifra Club

First Date

blink-182

Cifra: Versão 2 (violão e guitarra)
Tom: C
Vamo que Vamo!

Intro:

E|-------------------------------------------------------------|      e|------|
B|--5--1-------1---3--1---1---3--1---1---3--1---0--------------|      B|------|
G|--------0------0------0---0------0---0------0---0------------| (2x) G|--5~--| 
D|-------------------------------------------------------------|      D|--5~--|
A|-------------------------------------------------------------|      A|--3~--|
E|-------------------------------------------------------------|      E|------|


In the car, I just can't wait
To pick you up on our very first date
Is it cool if I hold your hand?
Is it wrong if I think its lame to dance?

Do you like my stupid hair?
Would you guess that I didn't know what to wear?  (Riff 1)
I'm just scared of what you think
You make me nervous so I really can't eat

Riff 1:

e|-------------------------------------------|
B|-------------------------------------------|
G|-------------------------------------------|
D|--5-5-5--5-5-5--5-5-5--5-5-5--5-5-5--------| (3x)
A|-------------------------------------------|
E|-------------------------------------------|

Depois(Riff 2):

e|----------------------------------------|
B|----------------------------------------|
G|--5-5-5-----------2-2-2-2---------------|
D|--5-5-5---5-5-5---2-2-2-2--3-3-5-5------| (2x)
A|--3-3-3---5-5-5---0-0-0-0--3-3-5-5------|
E|----------3-3-3------------1-1-3-3------|

Refrão:

e|----------------------------------------|
B|----------------------------------------|
G|--5-5-5-----------2-2-2-2---------------|
D|--5-5-5---5-5-5---2-2-2-2--3-3-5-5------| (2x)
A|--3-3-3---5-5-5---0-0-0-0--3-3-5-5------|
E|----------3-3-3------------1-1-3-3------|

Intro de novo:

E|-------------------------------------------------------------|      e|------|
B|--5--1-------1---3--1---1---3--1---1---3--1---0--------------|      B|------|
G|--------0------0------0---0------0---0------0---0------------| (2x) G|--5~--| 
D|-------------------------------------------------------------|      D|--5~--|
A|-------------------------------------------------------------|      A|--3~--|
E|-------------------------------------------------------------|      E|------|

When you smile, I melt inside
I'm not worthy for a minute of your time
I really wish it was only me and you
I'm jealous of everybody in the room

Please don't look at me with those eyes
Please don't hint that you're capable of lies  (Riff 1)
I dread a thought of our very first kiss
A target that I probably gonna miss

Riff 2

e|----------------------------------------|
B|----------------------------------------|
G|--5-5-5-----------2-2-2-2---------------|
D|--5-5-5---5-5-5---2-2-2-2--3-3-5-5------| (2x)
A|--3-3-3---5-5-5---0-0-0-0--3-3-5-5------|
E|----------3-3-3------------1-1-3-3------|

Inrerlude:

e|--------------------------------------------------------------|
B|--------------------------------------------------------------|
G|--------------------------------------------------------------|
D|--5555555---9999999---10101010101010(10's)---12121212121212---|  (2x)
A|--3333333---7777777---8888888----------------10101010101010---|
E|--------------------------------------------------------------|

Com distorção:
e|--------------------------------------------------------------|
B|--------------------------------------------------------------|
G|--------------------------------------------------------------|
D|--5555555--9999/555----10101010/555---77777777/5555555--------|  (4x)
A|--3333333--7777/333----8888/333-------55555555/3333333--------|
E|--------------------------------------------------------------|

Riff 2:

e|----------------------------------------|
B|----------------------------------------|
G|--5-5-5-----------2-2-2-2---------------|
D|--5-5-5---5-5-5---2-2-2-2--3-3-5-5------| (2x)
A|--3-3-3---5-5-5---0-0-0-0--3-3-5-5------|
E|----------3-3-3------------1-1-3-3------|


Refrão:

e|----------------------------------------|     Na 2 vez faz "intro" até terminar a música
B|----------------------------------------|
G|--5-5-5-----------2-2-2-2---------------|
D|--5-5-5---5-5-5---2-2-2-2--3-3-5-5------| (4x)
A|--3-3-3---5-5-5---0-0-0-0--3-3-5-5------|
E|----------3-3-3------------1-1-3-3------|
exibições 36.784
Acordes para:
    Composição: blink-182 Colaboração e revisão:
    • Fernando Belchior

    0 comentários

    mostrar mais comentários

    Conseguiu tocar?

    0 tocaram 0 ainda não

    Grave um vídeo tocando First Date e mande pra gente!

    00:00 / 00:00
    outros vídeos desta música
    repetir qualidade Automático
    Outros vídeos desta música
    00:00 / 00:00
    Automático
    OK