Cifra Club

Road To Joy

Bright Eyes

Cifra: Principal (violão e guitarra)
Selo Cifra Club: esta cifra foi revisada para atender aos critérios oficiais da nossa Equipe de Qualidade.
tom: C
Intro part:
E|---------|
B|---1---1-|
G|-----0---|
D|---------|
A|-3-------|
E|---------|

Verses:
E|-------------------------------------|
B|---1---1---1---1---1---1------1---1--|
G|------------------0------------------|
D|-----0---2---3-------3----3---2------|
A|-3-----------------------------------|
E|-------------------------------------|

E|---------------------------------|
B|---1---1---1---1---1---1---1---1-|
G|---------------------------------|
D|-----0---2---3---2---2---0---0---|
A|-3-------------------------------|
E|---------------------------------|

E|-------------------------------------|
B|---1---1---1---1---1---1------1---1--|
G|------------------0------------------|
D|-----0---2---3-------3----3---2------|
A|-3-----------------------------------|
E|-------------------------------------|

E|-------------------------------------------------------------|
B|---1---1---1---1---1---1---1---1---1---1---1---1---1---1-----|
G|--------------------------------0-------0-------0-------0----|
D|-----0---2---3---2---2---------------------------------------|
A|-3-------------------------3--------3-------3-------3--------|
E|-------------------------------------------------------------|


Chorus part:
Am
E|----------|
B|---1---1--|
G|-----2----| X4
D|----------|
A|-0--------|
E|----------|

C
Intro X4
Part

F
E|------------|
B|---1---1----|
G|-----2------| X2
D|-3----------|
A|------------|
E|------------|

G
E|-----------|
B|---3---3---|
G|-----4-----| X2
D|-5---------|
A|-----------|
E|-----------|

C
Intro
Part X4
Outros vídeos desta música
    50 exibições
      • ½ Tom
      • A
      • Bb
      • B
      • C
      • Db
      • D
      • Eb
      • E
      • F
      • F#
      • G
      • Ab
    • Adicionar à lista

    Afinação da cifra

    Afinador online

      0 comentários

      Ver todos os comentários

      Conseguiu tocar?

      0Tocaram0Ainda não

      Grave um vídeo tocando Road To Joy e nos envie!

      Toque também

      1. Imagem do artista Conor OberstYou Are Your Mothers Child Conor Oberst
      2. Imagem do artista Kevin DevineGo Haunt Someone Else Kevin Devine
      3. Imagem do artista Conor Oberst And The Mystic Valley BandTachycardia Conor Oberst And The Mystic Valley Band
      4. Imagem do artista DesaparecidosRadicalized Desaparecidos

      Entre para o Cifra Club PRO

      Tenha acesso a benefícios exclusivos no App e no Site

      • Chega de anúncios

      • Badges exclusivas

      • Mais recursos no app do Afinador

      • Atendimento Prioritário

      • Aumente seu limite de lista

      • Ajude a produzir mais conteúdo

      Cifra Club Pro

      Aproveite o Cifra Club com benefícios exclusivos e sem anúncios
      Cifra Club Pro
      Aproveite o Cifra Club com benefícios exclusivos e sem anúncios
      Ops (: Contenido disponible sólo en portugués.
      OK