Cifra Club

Aprenda

El Comunicador

Caifanes

Cifra: Principal (violão e guitarra)
tom: G
 Ahora si vamos a ver que tan bueno y rapido eres para los  
armonicos este es un tab solo para bajistas avanzados. 

  Intro después de dos vueltas con guitarra 
    E     C  B 
G||-------------|| 
D||.-----------.|| asi se va hasta terminar 
A||.-----------.|| las dos primeras estrofas 
E||-12s0--8--7--|| 

  Yo no sé...   ..es el comunicador... 
  Am  Bb   E     C  D  E                         C     D 
G|-------------------------------(9)(9)(7)----------------------| 
D|-----------------------9---7h9-(9)(9)------7h9----------------| 
A|---------------2--5-----777---7---------777----3-3-3-5-5-5-5-5| 
E|5--6-6s-12-0---------0----------------------------------------| 

  E                                C             D 
G|-(9)(9)(7)-------(9)(9)(7)---------------------------------------| 
D|-(9)(9)------7h9-(9)(9)------7h9—-(9)------(9)--(9)---------(9)--| 
A|7---------777---7---------777------------------------------------| 
E|---------------------------------8---8--8-8---10---10--10-10---10| 

  E                                 C      D       E C   Bm 
G|-(9)(9)(7)-------(9)(9)(7)----------------------------------- 
D|-(9)(9)------7h9-(9)(9)------7h9—---------------------------- 
A|7---------777---7---------777-----3-3-3--5-5-5-5---3-3s2-2s5- 
E|----------------------------------------------7--0----------- 

     E     C       Bm    E   C   Bm  
G ||------------||---------------------|| 
D ||.-(5)------.||.-------------------.|| 
A ||.----2h3-3s.||.2-2s5---2h3-3h2-2s5.|| 
E ||-0----------||-------0-------------|| 
        X 2               x  4 

  Yo no sé...                     Es el comunicador... 
  Am   Bb     E                    C       D 
G|---------||-------------------||----------------------- 
D|-(7)--(7)||.-----------------.||.-55---5--77----------- 
A|---------||.-----7---5h7-5h7-.||.3--3-3--5--5-5h7-55--- 
E|5----6s--||-12-0-777---7----0-||---------------------7- 
                   X   2 
   E 
G --(9)(9)(9)-------------(9)(9)(9)----------|| 
D --(9)(9)----------------(9)(9)------------.||  x 4 
A -----------7-5-5h7-5-------------7-5-5h7--.|| 
E -0------------7-----7-0-------------5----0-|| 

Así se va hasta el final... 
Composição de Saul Hernández
Colaboração e revisão:
  • karen
547 exibições
    • ½ Tom
    • A
    • Bb
    • B
    • C
    • Db
    • D
    • Eb
    • E
    • F
    • F#
    • G
    • Ab
  • Adicionar à lista

    0 comentários

    Ver todos os comentários

    Conseguiu tocar?

    0 Tocaram 0 Ainda não

    Grave um vídeo tocando El Comunicador e nos envie!

    00:00 / 00:00
    Outros vídeos desta música
    Repetir Qualidade Automático
    Outros vídeos desta música
    00:00 / 00:00
    Automático

    Cifra Club Pro

    Aproveite o Cifra Club com benefícios exclusivos e sem anúncios
    Cifra Club Pro
    Aproveite o Cifra Club com benefícios exclusivos e sem anúncios
    OK