Cifra Club

Aprenda

Estás Dormida

Caifanes

Cifra: Principal (violão e guitarra)
tom: D
 INTRO (VARIAS VECES) 
G|----------------------------------- 
D|--9-7-6---------6------------------ 
A|--------9-7-9-7---9-7-------------- 
E|----------------------10-9-7------- 

  CADA SEGUNDO SIN TU PIEL    ME VA SECANDO LA VOZ 
G|------------------------------------------------------ 
D|-------------------------------2-4-6-4-2-------------- 
A|--7-7-7-7--5-5-5-5-7-7-7-7-4-6-----------6-4-4-4-4-4- 
E|------------------------------------------------------ 

  Y ESTOY BUSCANDO A CIEGAS EN UN SEPULCRO SIN PUERTAS 
G|----------------------------------------------------- 
D|----------4-----------2----------4-----------2------- 
A|------6-6---6-----4-4---4----6-6---6-----4-4---6----- 
E|--4-4---------2-2---------4-4--------2-2------------ 

 CORO 
  Y AUNQUE TE ESCONDAS TODO EL DIA LA VERDAD YO SEBIEN  
G|------------------------------------------------------ 
D|------------------------------------------------------ 
A|-------------4-4-4-4-4-4-4-4-3-3-3-3-3-2-2-2-2-2-2-2-- 
E|-5-5-5-5-5-5------------------------------------------ 

  QUE ESTAS DORMIDA, CON LOS RECUERDOS DE OTRA VIDA DONDE YO 
G|------------------------------------------------------ 
D|------------------------------------------------------ 
A|-------------4-4-4-4-4-4-4-4-3-3-3-3-3-2-2-2-2-2-2-2- 
E|-5-5-5-5-5-5---------------------------------------- 

  UH,UH,UH,UH 
G|----------------------------------------------------- 
D|----------------------------------------------------- 
A|-2-2-2-2-2-2-2-2-2-2--------------------------------- 
E|----------------------------------------------------- 
   
  FINAL (VARIAS VECES) Y FINALIZA EN C#m 
G|----------------------------------- 
D|--9-7-6---------6------------------ 
A|--------9-7-9-7---9-7---------4---- 
E|----------------------10-9-7-------
Composição de Alejandro Marcovich
Colaboração e revisão:
  • Paulo Oliveira
1.676 exibições
    • ½ Tom
    • A
    • Bb
    • B
    • C
    • Db
    • D
    • Eb
    • E
    • F
    • F#
    • G
    • Ab
  • Adicionar à lista

    0 comentários

    Ver todos os comentários

    Conseguiu tocar?

    0 Tocaram 0 Ainda não

    Grave um vídeo tocando Estás Dormida e nos envie!

    00:00 / 00:00
    Outros vídeos desta música
    Repetir Qualidade Automático
    Outros vídeos desta música
    00:00 / 00:00
    Automático

    Cifra Club Pro

    Aproveite o Cifra Club com benefícios exclusivos e sem anúncios
    Cifra Club Pro
    Aproveite o Cifra Club com benefícios exclusivos e sem anúncios
    OK