Cifra Club

Aprenda

Heridos

Caifanes

Cifra: Principal (violão e guitarra)
tom: Am

   Am                                                           |
E|-----------------------------|----| |
B|-----------5----8-8-8-6-5-5~-|----| |
G|--------5---7-5--------------|-x2-| |
D|-/7~---7-7-------------------|----| |
A|-----------------------------|----| |
E|-----------------------------|----| |
                                                                  x2
                                                                 /
   F                                                            |
E|-----------------------------|-----------------------------| |
B|-----------5----8-8-8-6-5-5~-|-----------------------------| |
G|--------5---7-5--------------|----5----7h5------5----7h5---| |
D|-/7~---7-7-------------------|-/7---7--------/7---7------7-| |
A|-----------------------------|-----------------------------| |
E|-----------------------------|-----------------------------| |
                                                                /


Am                  F
Dame un poco de tus manos
             A#                  G
Acércame al abismo y suelta mi dolor
Am            F
Acompaña el ruido
             A#                    G
Mudo sonido vivo, de un recuerdo herido



         A#            Am           Dm
Qué solitario y desgarrado veo tu cuerpo
       A#            Am          G
Y melancólico me derramo en tus dedos



           D             Em
Si estás herida por esta vida
            G       Bm           D
Siente el divino rescate de tu pasión
           D               Em
Si estás herido por este olvido
           G       Bm           D
Invoca el beso salvaje de tu corazón



   Am                                                           |
E|-----------------------------|----| |
B|-----------5----8-8-8-6-5-5~-|----| |
G|--------5---7-5--------------|-x2-| |
D|-/7~---7-7-------------------|----| |
A|-----------------------------|----| |
E|-----------------------------|----| |
                                                                 ] x1
                                                                |
   F                                                            |
E|-----------------------------|-----------------------------| |
B|-----------5----8-8-8-6-5-5~-|-----------------------------| |
G|--------5---7-5--------------|----5----7h5------5----7h5---| |
D|-/7~---7-7-------------------|-/7---7--------/7---7------7-| |
A|-----------------------------|-----------------------------| |
E|-----------------------------|-----------------------------| |
                                                                /


Am               F
Arráncame esta niebla
                A#                      G
Y sopla en mi camino quiero ver dónde estoy
Am          F
Aléjame la noche
                A#                       G
Que no veo mis manos, las quiero ver volar



       A#     Am           Dm
Debilitado te busco entre sueños
    A#      Am      G
Abatido me quedo herido


           D             Em
Si estás herida por esta vida
            G       Bm           D
Siente el divino rescate de tu pasión
           D               Em
Si estás herido por este olvido
           G       Bm           D
Invoca el beso salvaje de tu corazón


Em A# Em F

   Em       A#         Em F
E|------------------|------------------|
B|------------------|------------------|
G|-/4~~~---4-4h5~~~-|-/4~~~---4-4h5~~~-|
D|------------------|------------------|
A|------------------|------------------|
E|------------------|------------------|


           D             Em
Si estás herida por esta vida
            G       Bm           D
Siente el divino rescate de tu pasión      x2
           D               Em
Si estás herido por este olvido
           G       Bm           F    G
Invoca el beso salvaje de tu corazón


          F  G
De tu corazón   x3


Am
Compositor não encontrado.
1 exibições
    • ½ Tom
    • Am
    • Bbm
    • Bm
    • Cm
    • C#m
    • Dm
    • Ebm
    • Em
    • Fm
    • F#m
    • Gm
    • G#m
  • Adicionar à lista

    0 comentários

    Ver todos os comentários

    Conseguiu tocar?

    0 Tocaram 0 Ainda não

    Grave um vídeo tocando Heridos e nos envie!

    00:00 / 00:00
    Outros vídeos desta música
    Repetir Qualidade Automático
    Outros vídeos desta música
    00:00 / 00:00
    Automático

    Cifra Club Pro

    Aproveite o Cifra Club com benefícios exclusivos e sem anúncios
    Cifra Club Pro
    Aproveite o Cifra Club com benefícios exclusivos e sem anúncios
    OK