Cifra Club

Aprenda

La Llorona

Caifanes

Cifra: Principal (violão e guitarra)
tom: C
Intro:
E|-----------------------------------------------------:
B|-----------------------------------------------------:
G|-----------------------------------------------------:
D|---/7-7-9/10--9-7-9/10---7--/7-7-9/10--9-7-9/10---7--:
A|-----------------------------------------------------:
E|-----------------------------------------------------:

E|--------------------------------------------------------------------:
B|--------------------------------------------------------------------:
G|-7/10/7---------------7/10/7----------------------------------------:
D|---------7--5--7--7-----------7--5--7--7--/7----7-9/10--9-7-7/8-7-5-:
A|-------------8--------------------8---------------------------------:
E|--------------------------------------------------------------------:

E|--------------------------------------------------------------------:
B|--------------------------------------------------------------------:
G|-----------------------------------------------------11-9-7vvv------:
D|---/7----7-9/10--9-7-7/8-7-5--4/5---7/8-8-8-------------------------:
A|--------------------------------------------8/9-8--8----------------:
E|--------------------------------------------------------------------:

Verso:
Am
Desde el fondo de la tierra

Fantasmas humanos se buscan
Dm
Algunos olvidan frío

Otros nunca se encuentran
Gm
Hacen temblar la vida
Bb
Tiemblan sueños
F        Am
Tiembla amor

Coro:
Dm               Am
Ay, no quiero amarte llorona
Dm               Am
Ay, no quiero llorar contigo
Gm                   Am
Ay, dejame ver tu piel
Gm                   Am
Ay, dejame ser tu piel
G
Dejame ayudarte
F
Na'mas dime como
Am            Gm       Am
Y asi sera,     Y asi sera

Solo:
E|-----------------------------------------------------:
B|-----------------------------------------------------:
G|-13-13-13/1--2-4-5-2v/7-9-10\9v-3/4-5-7-1/3-4-3-1v---:
D|-----------------------------------------------------:
A|-----------------------------------------------------:
E|-----------------------------------------------------:

E|-----------------------------------------------------:
B|-----------------------------------------------------:
G|-/14-13-14-13-14/16-17-16-13-16-13-16-\9-10-9-7-5-2v-:
D|-----------------------------------------------------:
A|-----------------------------------------------------:
E|-----------------------------------------------------:
Verso:
Am
Desde el fondo de la tierra

Más allá de la existencia
Dm
Flotan almas solas

Todas crucificadas
Gm
Hombres y mujeres lloran
Bb                 F        Am
Por un amor que nunca tuvieron

Coro:
Dm               Am
Ay, no quiero amarte llorona
Dm               Am
Ay, no quiero llorar contigo
Gm                   Am
Ay, dejame ver tu piel
Gm                   Am
Ay, dejame ser tu piel
G
Dejame ayudarte
F
Na'mas dime como
Am            Gm       Am
Y asi sera,     Y asi sera

Salida:
                               (               x4               )
E|-------------------------------------------------------------------:
B|-----------------------------15--13h14p13-15--15--13h14p13-15------:
G|---------1-2-4-1-2-/5-4-2-1----------------------------------------:
D|-(9)-(5)-----------------------------------------------------------:
A|-------------------------------------------------------------------:
E|-------------------------------------------------------------------:

   (                x4            ) (             x3              )
E|-------------------------------------------------------------------:
B|-16-14h15p14-16--16--14h15p14-16--15--13h14p13-15-15-13h14p13-15---:
G|-------------------------------------------------------------------:
D|-------------------------------------------------------------------:
A|-------------------------------------------------------------------:
E|-------------------------------------------------------------------:

   (              x5                ) (          x5            )
E|-------------------------------------------------------------------:
B|-10---13/12p10--13/12p10--13/12p10--12/11p9--12/11p9--12/11p9-/10v-:
G|-------------------------------------------------------------------:
D|-------------------------------------------------------------------:
A|-------------------------------------------------------------------:
E|-------------------------------------------------------------------:
Composição de Saul Hernández
Colaboração e revisão:
  • Johan Beltrán
3.491 exibições
    • ½ Tom
    • A
    • Bb
    • B
    • C
    • Db
    • D
    • Eb
    • E
    • F
    • F#
    • G
    • Ab
  • Adicionar à lista

    0 comentários

    Ver todos os comentários

    Conseguiu tocar?

    0 Tocaram 0 Ainda não

    Grave um vídeo tocando La Llorona e nos envie!

    00:00 / 00:00
    Outros vídeos desta música
    Repetir Qualidade Automático
    Outros vídeos desta música
    00:00 / 00:00
    Automático

    Cifra Club Pro

    Aproveite o Cifra Club com benefícios exclusivos e sem anúncios
    Cifra Club Pro
    Aproveite o Cifra Club com benefícios exclusivos e sem anúncios
    OK