Cifra Club

Aprenda

Miedo

Caifanes

Cifra: Principal (violão e guitarra)
tom: D
Intro (3x)|
E|------------------------------0000-00--|
B|-----12v----7-8-8-------------3332-23--|
G|---------------------------------------|
D|-----14v-------------------------------|
A|---------------------------------------|
E|---------------------------------------| (2x)

Verso:
Em  Bm7  Em Bm7 Em
Miedo
    Bm7   Em     Bm7     Em  Bm7 Em Bm7 Em
es lo que debe tener el cielo
   Bm7    Em
Será invadido
      C          D             Em  Bm7 Em Bm7
por amantes delirantes por un beso
        C         D          Em   Bm7 Em Bm7
por profetas y dementes exiliados

Em  Bm7  Em Bm7 Em
Miedo
    Bm7   Em     Bm7     Em  Bm7 Em Bm7 Em
es lo que debe tener la vida
   Bm7    Em
Será enfrentada
      C          D             Em  Bm7 Em Bm7
por los presos y los brujos solitarios
        C         D          Em   Bm7 Em Bm7
por las ánimas de niños enjuiciados

Coro:
E|-------------9--11--12--11--10--|
B|-----------9--------------------|
G|-------8/9----------------------|
D|--------------------------------|
A|--------------------------------|
E|--------------------------------|
           C#m
Antes que muera
E|-------------------------------|
B|---10--12--10------------------|
G|---------------11--------------|
D|-------------------12--11--12--|
A|-------------------------------|
E|-------------------------------|
                  D
Dejame amarte en vida
               A
hasta que el cielo 
                Fadd9
se caiga por nosotros
E|------------------9--8--11--9--|
B|---------------9---------------|
G|---------8--9------------------|
D|---9/11------------------------|
A|-------------------------------|
E|-------------------------------|
            C#m
Antes que muera
E|-----5/7---5-5------------------------|
B|-----------------7--------------------|
G|--------------------2--4--2-----------|
D|-----------------------------4--2--0--|
A|--------------------------------------|
E|--------------------------------------|
                  D
dejame amarte en vida
              A
hasta que el Sol 
                  F
se escape con la Luna

Solo:
E|---7---8--7--5---7--5--3---5--3--2---3--2----------|
B|-----8---------7---------5---------3---------------|
G|---------------------------------------------------|
D|---------------------------------------------------|
A|---------------------------------------------------|
E|---------------------------------------------------|

E|--7--8--7h8h7--5--7--5h7h5--3---5--3h5h3--2--------|
B|---8------------7-------------5-------------3---4--|
G|----------------------------------------------4----|
D|---------------------------------------------------|
A|---------------------------------------------------|
E|---------------------------------------------------|

E|---------8-----------------------------------------|
B|---10-8----10--8---10--8---------------------------|
G|-----------------10-------9---10--9--5-----7--5----|
D|----------------------------10----------7----------|
A|---------------------------------------------------|
E|---------------------------------------------------|

Verso:
  Em  Bm7  Em Bm7 Em
Muerte
   Bm7 Em
abrazaras
     C             D             Em  Bm7 Em Bm7
a demonios hechos carne por un sue~o
        C             D            Em   Bm7 Em Bm7
a los cuerpos hechos polvo sin justicia
 
Coro:
E|-------------9--11--12--11--10--|
B|-----------9--------------------|
G|-------8/9----------------------|
D|--------------------------------|
A|--------------------------------|
E|--------------------------------|
           C#m
Antes que muera
E|-------------------------------|
B|---10--12--10------------------|
G|---------------11--------------|
D|-------------------12--11--12--|
A|-------------------------------|
E|-------------------------------|
                  D
Dejame amarte en vida
               A
hasta que el cielo 
                Fadd9
se caiga por nosotros
E|------------------9--8--11--9--|
B|---------------9---------------|
G|---------8--9------------------|
D|---9/11------------------------|
A|-------------------------------|
E|-------------------------------|
            C#m
Antes que muera
E|-----5/7---5-5------------------------|
B|-----------------7--------------------|
G|--------------------2--4--2-----------|
D|-----------------------------4--2--0--|
A|--------------------------------------|
E|--------------------------------------|
                  D
dejame amarte en vida
              A
(hasta que el Sol 
                  F
se escape con la Luna) (2x)

Solo:
E|---------------------------------------17-17-17-17---|
B|-3/12-12--9-12-9-12-9-10---10h9---8------------------|
G|--------------------------------11--9----------------|
D|-----------------------------------------------------|
A|-----------------------------------------------------|
E|-----------------------------------------------------|

E|-----------------------------------------------------|
B|-15--13-12-13-12-13-12---12-10-----------------------|
G|-------------------------------12-10h12h10-9--7h9h7-5|
D|-----------------------------------------------------|
A|-----------------------------------------------------|
E|-----------------------------------------------------|
                       (2x)
E|-----------------------------------------------------|
B|-----------------------------------------------------|
G|-9h12h9h12h9h12h9-7h11h7h11h7h11h7-5h9h5h9h5h9--4----|
D|-----------------------------------------------------|
A|-----------------------------------------------------|
E|-----------------------------------------------------|

E|---------7-------------------------------------------|
B|-------8--8--10--7---10--7-8------8---7-----7--------|
G|-----9-------------7----------7-9---9---7-7---9------|
D|-----------------------------------------------------|
A|-----------------------------------------------------|
E|-----------------------------------------------------|

E|------7-10-12-11-12-14-11-12----10-8-7-8-7-------12v-|
B|-----8----------------------12-8-----------10-12-----|
G|--7/9------------------------------------------------|
D|-----------------------------------------------------|
A|-----------------------------------------------------|
E|-----------------------------------------------------|
                     (3x)
E|-----------------------------------------------------|
B|-----------------------------------------------------|
G|-----------------------------------------------------|
D|--2-2-2-2-2-2---2-2-2--------------------------------|
A|--2-0-0-0-0-2---2-0-2--------------------------------|
E|--------------------0--------------------------------|
Composição de Saul Hernández
Colaboração e revisão:
  • Johan Beltrán
1.406 exibições
    • ½ Tom
    • A
    • Bb
    • B
    • C
    • Db
    • D
    • Eb
    • E
    • F
    • F#
    • G
    • Ab
  • Adicionar à lista

    0 comentários

    Ver todos os comentários

    Conseguiu tocar?

    0 Tocaram 0 Ainda não

    Grave um vídeo tocando Miedo e nos envie!

    00:00 / 00:00
    Outros vídeos desta música
    Repetir Qualidade Automático
    Outros vídeos desta música
    00:00 / 00:00
    Automático

    Cifra Club Pro

    Aproveite o Cifra Club com benefícios exclusivos e sem anúncios
    Cifra Club Pro
    Aproveite o Cifra Club com benefícios exclusivos e sem anúncios
    OK