Cifra Club

Aprenda

Piedra

Caifanes

Cifra: Principal (violão e guitarra)
tom: G
Te recomiendo que en esta rola le subas muy poco a la 
pastilla de tono en tu bajo y tu amplificación sea con 
muy pocos medios, un poco más de agudos y muchos más 
graves...y recuerda escucharla un par de veces para  
agarrar bien los tiempos... 

pm - palm mute - es solo poner el dedo índice de la  
     mano izquierda sobre la cuerda sin llegar a un 
     armónico.  

T - tumb - es golpear la cuerda con el dedo pulgar de 
    la mano derecha utilizando la parte lateral  
    interior del mismo logrando así un sonido percusivo. 

P - popping - esto es jalar la cuerda con el dedo 
    índice de la mano derecha hacia fuera. 

 Intro 
  D                D5+              Bm               D5+ 
G|----------------|----------------|----------------|-------------| 
D|12--12--12--12--|12--12--12--12--|12--12--12--12--|12-—12—12—12-| 
A|--12--12—-12-—12|--13--13--13—-13|--14--14--14—-14|--13-13—13—13| 
E|----------------|----------------|----------------|-------------|  

 Piedra, déjame piedra no me deformes más déjame como soy.. 
  D    D5+       Bm  D5+         D      D5+       Bm  D5+    
G|-------------|-------------|-------------|-------------| 
D|-------------|-------------|-------------|-------------| 
A|----5--------|----5--------|--------5--55|--------5--55| 
E|------6------|------6------|---------6---|----------6--| 

G|--------------|| 
D|--------------|| 
A|---5-5-8-8-7-5|| 
E|6-6---6-------|| 
 *    rápido     * 

  Mira como sangro... 
  Am                                 D                 G   
G|-----------------|----------------|-----------------|--------| 
D|-----------------|----------------|-----------------|5—-s17s5| 
A|-----------------|----------------|0h3h5-0h3h5-0h3h5|--------| 
E|5--0h3h5-0h3h5-0h3h5---0h3h5-0h3h5|-----------------|--------| 
 *                           4  veces                          * 

  Piedra... ...que así estoy bien... 
                              D9 
G|-------------|-------------|-------------------|-3—-2--3--2| 
D|-------------|-------------|-------------------|-----------| 
A|555-5--555---|-------------|333-3--3--3333-3—3-|3--3—-3--3-| 
E|----pm-----pm|-------------|----pm-pm-----pm-pm|-----------| 
 *   8 veces   *             *      3 veces      *TP TP TP TP 
  
  Sepárame los huesos... 
  Am                                 D                 G   
G|-----------------|----------------|-----------------|--------| 
D|-----------------|----------------|-----------------|5—-s12--| 
A|-----------------|----------------|0h3h5-0h3h5-0h3h5|--------| 
E|5--0h3h5-0h3h5-0h3h5---0h3h5-0h3h5|-----------------|--------| 
 *                           4  veces                          * 

  Piedra... ...que así estoy bien... 
                              D9 
G|-------------|-------------|-------------------|| 
D|-------------|-------------|-------------------|| 
A|555-5--555---|-------------|333-3--3--3333-3—3-|| 
E|----pm-----pm|-------------|----pm-pm-----pm-pm|| 
 *   8 veces   *             *       4 veces     * 

  Solo de Acustica y eléctrica...                      
  Am                                 D                 G   
G|-----------------|----------------|-----------------|----------| 
D|-----------------|----------------|-----------------|5s121212s5| 
A|-----------------|----------------|0h3h5-0h3h5-0h3h5|----------| 
E|5--0h3h5-0h3h5-0h3h5---0h3h5-0h3h5|-----------------|----------| 
 *                           4  veces                            * 
  
  Piedra...     hasta el final... 
  D 
G|-------------|-------------|-------------| 
D|-------------|-------------|-------------| 
A|555-5--555-5-|555-5--555-5s|9-99-9-999-9s| 
E|----pm-----pm|----pm-------|-----pm------| 

G|-----------------|-------------|| 
D|-----------------|-------------|| 
A|10--10-10-10-10--10-10-10s17s5-|| 
E|-------------pm----------------||
Compositor não encontrado.
Colaboração e revisão:
  • Danilo Camillo
1.220 exibições
    • ½ Tom
    • A
    • Bb
    • B
    • C
    • Db
    • D
    • Eb
    • E
    • F
    • F#
    • G
    • Ab
  • Adicionar à lista

    0 comentários

    Ver todos os comentários

    Conseguiu tocar?

    0 Tocaram 0 Ainda não

    Grave um vídeo tocando Piedra e nos envie!

    00:00 / 00:00
    Outros vídeos desta música
    Repetir Qualidade Automático
    Outros vídeos desta música
    00:00 / 00:00
    Automático

    Cifra Club Pro

    Aproveite o Cifra Club com benefícios exclusivos e sem anúncios
    Cifra Club Pro
    Aproveite o Cifra Club com benefícios exclusivos e sem anúncios
    OK