Cifra Club

Aprenda

Te Estoy Mirando

Caifanes

Cifra: Principal (violão e guitarra)
tom: G
Intro:
E|-----------------------------------------------------|
B|-1-1-1---1-1---1---1-1-1---1-1-1---1-1-1---1-1---1---|
G|-2-2-2-2---0-0-0---2-2-2-2---0-0---2-2-2-2---0-0-0---|
D|-----------------------------------------------------|
A|-----------------------------------------------------|
E|-----------------------------------------------------|

E|------------------------------------------------------|
B|-3-3-----1-1------1-1-1-1-1-1-1-1-1-1-1-1-1-1-1-1-1-1-|
G|-----3-3-----2-2--2-2-2-0-0-0-2-2-2-0-0-0-2-2-2-0-0-0-|
D|------------------------------------------------------|
A|------------------------------------------------------|
E|------------------------------------------------------|

E|-----------------|
B|-3-3-----1-1-----|
G|-----3-3-----2-2-|
D|-----------------|
A|-----------------|
E|-----------------|

Verso 1: 
E|-3-3-3-3-3-4-6---|
B|-----------------|
G|-----------------|
D|-----------------|
A|-----------------|
E|-----------------| (4x)

Puente (Sin Percusiones)|
E|--6-4-3---3-4-6-4-3---3-4--|
B|--------4-----------4------|
G|---------------------------|
D|---------------------------|
A|---------------------------|
E|---------------------------|

Verso 2:
E|-3-3-3-1-1-4-6---|
B|-----------------|
G|-----------------|
D|-----------------|
A|-----------------|
E|-----------------| (4x)

Solo:
E|-------------------------------------------|
B|-8-7-8--7-8-7--8-7-8--7-8-7--5-7-----------|
G|-------------------------------------------|
D|----------------------------------8bend----|
A|-------------------------------------------|
E|-------------------------------------------|

E|---------------------------------------------------------|
B|-8-7-8--7-8-7--8-7-8--7-8-7--5-7-------------------------|
G|---------------------------------------------------------|
D|----------------------------------8bend-10bend-12bend----|
A|---------------------------------------------------------|
E|---------------------------------------------------------|
Composição de Saul Hernández
Colaboração e revisão:
  • Johan Beltrán
301 exibições
    • ½ Tom
    • A
    • Bb
    • B
    • C
    • Db
    • D
    • Eb
    • E
    • F
    • F#
    • G
    • Ab
  • Adicionar à lista

    0 comentários

    Ver todos os comentários

    Conseguiu tocar?

    0 Tocaram 0 Ainda não

    Grave um vídeo tocando Te Estoy Mirando e nos envie!

    00:00 / 00:00
    Outros vídeos desta música
    Repetir Qualidade Automático
    Outros vídeos desta música
    00:00 / 00:00
    Automático

    Cifra Club Pro

    Aproveite o Cifra Club com benefícios exclusivos e sem anúncios
    Cifra Club Pro
    Aproveite o Cifra Club com benefícios exclusivos e sem anúncios
    OK