Cifra Club

The Battle of Aughrim

Chieftains

Cifra: Principal (violão e guitarra)
Selo Cifra Club: esta cifra foi revisada para atender aos critérios oficiais da nossa Equipe de Qualidade.
tom: G
E|---------------------------|---------0--------------|------------------------|------------------------------|
B|-----------------------0---|-1---3--------3----1----|------0-----------------|---------0--------------------|
G|-2---0--------2----2-------|------------------------|-2---------0----0-------|-0---2-------0---2---0--------|
D|---------2----2------------|-2------------2---------|-2---------0--------4---|-----------------0-------2----|
A|---------0-----------------|---------0--------------|------------------------|-2----------------------------|
E|-------------------0-------|-------------------0----|------3---------3-------|---------3---------------3----|

E|---------------------|-------------0----0-------0----|-5---3---0-------------0---|
B|---------------------|-0---1---3------------3--------|--------------3----0-------|
G|-----------2----2----|------------------2------------|-2-------------------------|
D|-0----2----2---------|-2-----------------------------|--------------0----2-------|
A|-2----0--------------|-------------0------------0----|---------3-----------------|
E|----------------0----|-------------------------------|---------------------------|

E|------------------------|------------------------|-----------------0---------|---------------------|
B|-3---0------------------|------------------------|-----0---1---3--------3----|-1---------0---------|
G|---------2---------2----|------2---0--------2----|-2-------------------------|------2---------0----|
D|--------------2---------|--------------2----2----|---------2------------2----|------2---------0----|
A|---------0---------0----|--------------0---------|-----------------0---------|---------------------|
E|-0----------------------|------------------------|-0-------------------------|-0---------3---------|

E|---------------------------------|---------------------|------------------0----0-------|
B|-----------------0---------------|---------------------|------0---1---3------------3---|
G|-0-------0---2-------0---2---0---|----------------2----|-2---------------------2-------|
D|-----4-------------------0-------|-2----0----2----2----|------2------------------------|
A|---------2-----------------------|------2----0---------|------------------0------------|
E|-3---------------3---------------|-3-------------------|-0-----------------------------|

E|-0----5---3---0---------|-----0---------------------|-------0----5----|-5------------------------5---7---|
B|-------------------3----|-0-------3---0-------------|-----------------|-----8---5----5---7---8-----------|
G|------2-----------------|-----------------2---------|-2---------------|-5------------5-------------------|
D|-------------------0----|-2--------------------2----|-----------------|----------------------------------|
A|-0------------3---------|-----------------0---------|-0----------0----|---------0----------------0-------|
E|------------------------|---------0-----------------|-----------------|----------------------------------|

E|-5------------------------5----|-5----------------0-------0---|-------------------5----|
B|-----8---5----5---7---8--------|-----5---8----8-------3-------|-3---0------------------|
G|-5------------5----------------|-5------------0---------------|-0-------0--------------|
D|-------------------------------|------------------------------|--------------0---------|
A|---------0----------------0----|----------------------2-------|-------------------0----|
E|-------------------------------|---------8--------------------|---------3--------------|

E|-5------------------------5---7---|-5-------0----0------------|-0--------------------------|
B|-----8---5----5---7---8-----------|-----8----------------0----|------3----0---1---0--------|
G|-5------------5-------------------|-5----------------7--------|-0---------0-----------2----|
D|----------------------------------|--------------0------------|----------------------------|
A|--------------------------0-------|----------------------7----|-----------------------0----|
E|---------0------------------------|---------8-----------------|------0---------------------|

E|------------0----|-5----5------------------------|-5---7---5------------------------|
B|-----------------|----------8---5----5---7---8---|-------------8---5----5---7---8---|
G|------2----------|------5------------5-----------|---------5------------5-----------|
D|-2---------------|-------------------------------|----------------------------------|
A|------0----------|-0------------0----------------|-0---------------0----------------|
E|-----------------|-------------------------------|----------------------------------|

E|-5----5----------------0---|-----0---------------------|-5----5------------------------|
B|----------5---8----8-------|-3-------3---0-------------|----------8---5----5---7---8---|
G|------5------------0-------|---------0-------0---------|------5------------5-----------|
D|---------------------------|----------------------0----|-------------------------------|
A|-0-------------------------|-2-------------------------|-0-----------------------------|
E|--------------8------------|-----------------3---------|--------------0----------------|

E|-5---7---5-------0----0-------|------0---------------------|-----------------|
B|-------------8----------------|-0---------3----0---1---0---|-----------------|
G|---------5----------------7---|------0---------0-----------|-2---------2-----|
D|----------------------0-------|----------------------------|------2----------|
A|-0----------------------------|-7--------------------------|-0---------0-----|
E|-----------------8------------|-----------0----------------|-----------------|

Outros vídeos desta música
    80 exibições
      • ½ Tom
      • A
      • Bb
      • B
      • C
      • Db
      • D
      • Eb
      • E
      • F
      • F#
      • G
      • Ab
    • Adicionar à lista

    Afinação da cifra

    Afinador online

      0 comentários

      Ver todos os comentários

      Entre para o Cifra Club PRO

      Tenha acesso a benefícios exclusivos no App e no Site

      • Chega de anúncios

      • Badges exclusivas

      • Mais recursos no app do Afinador

      • Atendimento Prioritário

      • Aumente seu limite de lista

      • Ajude a produzir mais conteúdo

      Cifra Club Pro

      Aproveite o Cifra Club com benefícios exclusivos e sem anúncios
      Cifra Club Pro
      Aproveite o Cifra Club com benefícios exclusivos e sem anúncios
      Ops (: Contenido disponible sólo en portugués.
      OK