Cifra Club

Aprenda

Casulo

Choldra

Cifra: Versão 2 (violão e guitarra)
tom: D
Drop C (Drop D 1 ton abaixo)
CGCFAd

intro
d---------------------------------------------
A--------------------999----------------------
F---------------------------------------------
C------11------7------------------------------
G---9------9----------------------------------
C--------------------------------------------- 3x

base (intro toca junto)
d---------------------------------------------
A---------------------------------------------
F---------------------------------------------
C--4444-----2222-----4444-----2-2-22x-22x-----
G--4444(4x)-2222(4x)-4444(4x)-2-2-22x-22x-----
C--4444-----2222-----4444-----2-2-22x-22x-----

verso I (gtr 1)
d---------10109----------10109----------101099h101010129h101012
A------777-----101099-777-----101099-777-----------------------
F--------------------------------------------------------------
C--------------------------------------------------------------
G--------------------------------------------------------------
C--------------------------------------------------------------

verso I (gtr 2)
d---------------------------------------------
A---------------------------------------------
F---------------------------------------------
C---4444------2222----------------------------
G---4444------2222----------------------------
C---4444------2222---------------------------- repete varias vezes, da pra pegar o tempo facil
pm  ....      ....   

pre-refrao (gtr 1)
d-----7h9-9h10-10\12(6x)-9h10-10h12--1616161512--7h9-9h10-10\12(6x)
A-----------------------------------------------------------------
F-----------------------------------------------------------------
C-----------------------------------------------------------------
G-----------------------------------------------------------------
C-----------------------------------------------------------------

(gtr 2)
d---------------------------------------------
A---------------------------------------------
F---------------------------------------------
C---4~-------2~-------------------------------
G---4~-------2~-------------------------------
C---4~-------2~-------------------------------

refrão (gtr 1)
d---------------------------------------------
A--------------------999----------------------
F---------------------------------------------
C------11------7------------------------------
G---9------9----------------------------------
C--------------------------------------------- varias vezes

(gtr 2)
d---------------------------------------------
A---------------------------------------------
F---------------------------------------------
C--4444-----2222-----4444-----2-2-22x-22x-----
G--4444(4x)-2222(4x)-4444(4x)-2-2-22x-22x-----
C--4444-----2222-----4444-----2-2-22x-22x-----

Verso II (gtr 1)
d---------10109----------10109----------101099h101010129h101012
A------777-----101099-777-----101099-777-----------------------
F--------------------------------------------------------------
C--------------------------------------------------------------
G--------------------------------------------------------------
C--------------------------------------------------------------

d---------887------776-------10109----------101099h101010129h101012
A------555---87-444---77~-777-----101099-777-----------------------
F------------------------------------------------------------------
C------------------------------------------------------------------
G------------------------------------------------------------------
C------------------------------------------------------------------

(gtr 2)
d---------------------------------------------------------------------------
A---------------------------------------------------------------------------
F---------------------------------------------------------------------------
C---4444--4-55-7-5-44-2222-----0000--0-22-44-22-0-22------------------------
G---4444--4-55-7-5-44-2222(3x)-0000--0-22-44-22-0-22------------------------
C---4444--4-55-7-5-44-2222-----0000--0-22-44-22-0-22------------------------
pm  ....  . .. . . .. ....     ....  . .. .. .. . ..

d-------------------------------------------------------------------------
A-------------------------------------------------------------------------
F-------------------------------------------------------------------------
C---4444--4-55-7-5-44-2222--0000~--0-22-44-0-22---------------------------
G---4444--4-55-7-5-44-2222--0000~--0-22-44-0-22---------------------------
C---4444--4-55-7-5-44-2222--0000~--0-22-44-0-22---------------------------
pm  ....  . .. . . .. ....  ...    . .. .. . ..

e repete u refrao

soh issu
Colaboração e revisão:
  • Eros Costa
453 exibições
    • ½ Tom
    • A
    • Bb
    • B
    • C
    • Db
    • D
    • Eb
    • E
    • F
    • F#
    • G
    • Ab
  • Adicionar à lista

    0 comentários

    Ver todos os comentários

    Conseguiu tocar?

    0 Tocaram 0 Ainda não

    Grave um vídeo tocando Casulo e nos envie!

    00:00 / 00:00
    outros vídeos desta música
    repetir qualidade Automático
    Outros vídeos desta música
    00:00 / 00:00
    Automático

    Cifra Club Pro

    Aproveite o Cifra Club com benefícios exclusivos e sem anúncios
    Cifra Club Pro
    Aproveite o Cifra Club com benefícios exclusivos e sem anúncios
    OK