Cifra Club

Delirium Trigger

Coheed And Cambria

Tab de baixo: Principal
exibições 176
Record: Second Stage Turbine Blade
Tuning: Drop D

in timing may throw you off. Especially in the Bridge and the end of the Chorus. Really get
know the song before you start to learn it. Also, I am almost positive that this tab is 
correct. I only say almost because I am unsure of the pre-chorus. But even
my uncertinty, it is a very small part of the song and could be played many different 
Enjoy!

Intro
|----------------|----------------------|
|----------------|----------------------|
|----------------|----------------------|
|-0~---3~---/8~--|-0~---3~---/8h10-8~---|

|----------------|-----------------------------------|
|----------------|-----------------------------------|
|----------------|-----------------------------------|
|-0~---3~---/8~--|-0~---3~---/810-10-10-10-10-108\---|

|---------------------------------------------------|x2
|-------------------------------------8-------------|
|--------------------------------------10-----108---|
|-3-03003~--8-08008~--3-03003~--/81010----1088------|

Verse
|---------------------------------------------------|x4
|-------------------------------------8-------------|
|--------------------------------------10-----108---|
|-3-03003~--8-08008~--3-03003~--/81010----1088------|

|----|
|----|
|----|
|-0~-|

|---------------------------------------------------|x2
|-------------------------------------8-------------|
|--------------------------------------10-----108---|
|-3-03003~--8-08008~--3-03003~--/81010----1088------|

|----|
|----|
|----|
|-0~-|

|---------------------------------------------------|x1
|-------------------------------------8-------------|
|--------------------------------------10-----108---|
|-3-03003~--8-08008~--3-03003~--/81010----1088------|

Pre-Chorus
|-----------------------------|
|-----------------------------|
|-----------------------------|
|-3~----/8~---10-8-3~----/8~--|

Chorus
|-----------------------------------------------------|
|-----------------------------------------------------|
|-1010-1010-------------8h10-10/12-8~--8h10-10/12-7~--|
|-----------1313-1310h12------------------------------|

|---------------------------|x3
|---------------------------|
|---------12--------12------|
|-10h12h10--10h12h10--------|

|-----------------------------------------------------|
|-----------------------------------------------------|
|-1010-1010-------------8h10-10/12-8~--8h10-10/12-7~--|
|-----------1313-1310h12------------------------------|

|--------------------------------------------------------------------------|
|--------------------------------------------------------------------------|
|------12-----------12--------12-----------12--------12-----------12-------|
|-10-12--12-10h12h10--12-10-12--12-10h12h10--12-10-12--12-10h12h10--12-12~-|

Pre-Chorus
|-----------------------------|
|-----------------------------|
|-----------------------------|
|-3~----/8~---10-8-3~----/8~--|

Bridge
|--------------------------------------|x6
|--------------------------------------|
|---------------------8---8------------|
|-0~-2~-3~-5~-8h10h8~--7~--8~-5-875303-|

|---------------------------|x1
|---------------------------|
|---------------------8---8-|
|-0~-2~-3~-5~-8h10h8~--7~---|

Chorus
|-----------------------------------------------------|
|-----------------------------------------------------|
|-1010-1010-------------8h10-10/12-8~--8h10-10/12-7~--|
|-----------1313-1310h12------------------------------|

|---------------------------|x3
|---------------------------|
|---------12--------12------|
|-10h12h10--10h12h10--------|

|-----------------------------------------------------|
|-----------------------------------------------------|
|-1010-1010-------------8h10-10/12-8~--8h10-10/12-7~--|
|-----------1313-1310h12------------------------------|

|--------------------------------|x1
|--------------------------------|
|---------12--------12-1010------|
|-10h12h10--10h12h10--------1313-|
Composição: Coheed and Cambria

0 comentários

    mostrar mais comentários

    Conseguiu tocar?

    0tocaram0ainda não

    Grave um vídeo tocando Delirium Trigger e mande pra gente!

    00:00 / 00:00
    outros vídeos desta música
    repetirqualidadeautomática
    Outro vídeos desta música
      00:00 / 00:00
      automática
      OK