Cifra Club

Aprenda

Clocks

Coldplay

Cifra: Versão 3 (violão e guitarra)
tom: F#
(intro - piano)

(riff 1)
E |--------------------------|----------------------------|
B |--------------------------|----------------------------|
G |8---------8---------8-----|--6--------6--------6-------|
D |---8---------8---------8--|-----8--------8--------8----|
A |-----10--------10--------|--------8--------8-----------|
E |--------------------------|----------------------------|

E |--------------------------|---------------------------|
B |--------------------------|---------------------------|
G |--6--------6--------6-----|--5--------5--------5------|
D |-----8--------8--------8--|-----6--------6--------6---|
A |--------8--------8--------|--------8--------8---------|
E |--------------------------|---------------------------|

D#                   A#m              A#m                     Fm
Lights go out and I can't be saved, tides that I tried to swim against
  D#               A#m           A#m         Fm
Brought me down upon my knees, oh I beg I beg and please -singing
 D#              A#m                A#m             Fm
Come out with things I've said, shoot an apple of my head - and a
  D#           A#m              A#m             Fm
trouble that can't be named, tigers waiting to be tamed - singing

D#      A#m  A#m      Fm
     you          are     (2x)

(riff 1)
E |--------------------------|----------------------------|
B |--------------------------|----------------------------|
G |8---------8---------8-----|--6--------6--------6-------|
D |---8---------8---------8--|-----8--------8--------8----|
A |-----10--------10--------|--------8--------8-----------|
E |--------------------------|----------------------------|

E |--------------------------|---------------------------|
B |--------------------------|---------------------------|
G |--6--------6--------6-----|--5--------5--------5------|
D |-----8--------8--------8--|-----6--------6--------6---|
A |--------8--------8--------|--------8--------8---------|
E |--------------------------|---------------------------|

(faça o riff 1 junto com o coro e repita mais duas vezes)

 D#         A#m            A#m               Fm
Confusion never stops, closing walls and ticking clocks - gonna
 D#             A#m               A#m                 Fm
come back and take you home, I could not stop the tune now known - singing
 D#         A#m           A#m                Fm
Come out upon my seas, Curse missed opportunities - am I
D#      A#m            A#m             Fm
a part of the cure, or am I a part of the disease? - singing

(faça esse riff durante esse verso)

"Closing walls and ticking clocks, gonna..."
E |------------------------------------------------|
B |--------------------18--------------p16---------|
G |------------------------------------------------|

D#      A#m  A#m      Fm
     you          are     (4x)

(riff 1)
E |--------------------------|----------------------------|
B |--------------------------|----------------------------|
G |8---------8---------8-----|--6--------6--------6-------|
D |---8---------8---------8--|-----8--------8--------8----|
A |-----10--------10---------|-------8--------8-----------|
E |--------------------------|----------------------------|

E |--------------------------|---------------------------|
B |--------------------------|---------------------------|
G |--6--------6--------6-----|--5--------5--------5------|
D |-----8--------8--------8--|-----6--------6--------6---|
A |--------8--------8--------|--------8--------8---------|
E |--------------------------|---------------------------|

(faça o riff 1 agora apenas acomanhando o coro)

(bridge)

(riff 2)
E |-11-------11--------11-----|-9-------9--------9----|
B |----11-------11--------11--|---11------11-------11-|
G |-------12-------12---------|-------10-------10-----|
D |---------------------------|-----------------------|
A |---------------------------|-----------------------|
E |---------------------------|-----------------------|

E |-9--------9--------9-------|-8------8--------8-----|
B |----11------11--------11---|---9------9--------9---|
G |-------10------10----------|-----8------8----------|
D |---------------------------|-----------------------|
A |---------------------------|-----------------------|
E |---------------------------|-----------------------|

(faça o riff 2 duas vezes e mais duas vezes para acompanhar o proximo coro)

D#      A#m  A#m      Fm
     you          are     (4x)

(essa parte é feita acompanhada do riff 4)

F#7                       C# B
     and nothing else compares
F#7                         C# B
     oh no, nothing else compares
F#7                      C# B  F#7  F#7  F#7  ~~
     and nothing else compa ________________ares

(riff 3)
--------------------------------|-----------------------|
--------------------------------|-----------------------|
13--13--13--13--13--13--13--13--|--5--5--5--5--5--5--5-5|
--------------------------------|-----------------------|
--------------------------------|-----------------------|
--------------------------------|-----------------------|

--------------------------|--------------------------------|
--------------------------|--------------------------------|
--3--3--3--3--3--3--3--3--|--10--10--10--10--10--10--10--10|
--------------------------|--------------------------------|
--------------------------|--------------------------------|
--------------------------|--------------------------------|

--------------------------------|-----------------------|
--------------------------------|-----------------------|
13--13--13--13--13--13--13--13--|--5--5--5--5--5--5--5-5|
--------------------------------|-----------------------|
--------------------------------|-----------------------|
--------------------------------|-----------------------|

--------------------------|--------------------------------|
--------------------------|--------------------------------|
--3--3--3--3--3--3--3--3--|--10--10--10--10--10--10--10--10|
--------------------------|--------------------------------|
--------------------------|--------------------------------|
--------------------------|--------------------------------|

--------------------------|--------------------------------|
--------------------------|--------------------------------|
--3--3--3--3--3--3--3--3--|--10--10--10--10--10--10--10--10|
--------------------------|--------------------------------|
--------------------------|--------------------------------|
--------------------------|--------------------------------|

(bridge)

(faça agora o riff 1 duas vezes e o riff 2 duas vezes)

(agora acompanhe o coro e o verso final com o riff 2)

D#     A#m  A#m       Fm
     you          are     (2x)

 D#     A#m            A#m        Fm
Home, home, where I wanted to go   (4x)

(durante esse verso o backing vocal vai repitindo o coro)
(vai repitindo o riff 2 e diminuindo o volume até o final da musica)
Composição de Chris Martin / Guy Berryman / Jon Buckland / Will Champion
Colaboração e revisão:
  • mike watanabe
  • Ralph Junior
103.844 exibições
    • ½ Tom
    • A
    • Bb
    • B
    • C
    • Db
    • D
    • Eb
    • E
    • F
    • F#
    • G
    • Ab
  • Adicionar à lista

    0 comentários

    Ver todos os comentários
    00:00 / 00:00
    Outros vídeos desta música
    Repetir Qualidade Automático
    Outros vídeos desta música
    00:00 / 00:00
    Automático

    Cifra Club Pro

    Aproveite o Cifra Club com benefícios exclusivos e sem anúncios
    Cifra Club Pro
    Aproveite o Cifra Club com benefícios exclusivos e sem anúncios
    OK