Cifra Club

Aprenda

Clocks

Coldplay

Cifra: Versão 4 (violão e guitarra)
tom: Bb
Standard tuning (EADGbe)
Use a bit of echo(reverb/delay)

Main riff
--------------------------|----------------------------|
--------------------------|----------------------------|
8---------8---------8-----|--6--------6--------6-------|
---8---------8---------8--|-----8--------8--------8----|
------10--------10--------|--------8--------8----------|
--------------------------|----------------------------|

--------------------------|---------------------------|
--------------------------|---------------------------|
--6--------6--------6-----|--5--------5--------5------|
-----8--------8--------8--|-----6--------6--------6---|
--------8--------8--------|--------8--------8---------|
--------------------------|---------------------------|

"Closing walls and ticking clocks, gonna..."
---------------------------------------------------|
-----------------------18--------------p16---------|
---------------------------------------------------|
---------------------------------------------------|
---------------------------------------------------|
---------------------------------------------------|

Main riff (+1 octave)
--11----------11----------11------|--9----------
------11----------11----------11--|-----11------
----------12----------12----------|---------10--
----------------------------------|-------------
----------------------------------|-------------
----------------------------------|-------------

9----------9------|--9----------9----------9------|
---11---------11--|-----11---------11---------11--|
-------10---------|---------10---------10---------|
------------------|-------------------------------|
------------------|-------------------------------|
------------------|-------------------------------|

8----------8----------8------|
---9----------9----------9---|
-------10---------10---------|
-----------------------------|
-----------------------------|
-----------------------------|

Riff 2 (played very quietly)
--------------|--------------|--------------|--------------|
--------------|--------------|--------------|--------------|
--------------|--------------|--------------|--------------|
-----6--5-----|-----6--5-----|-----6--5-----|-----6--5-----|
--6--------6--|--4--------4--|--4--------4--|--3--------3--|
--------------|--------------|--------------|--------------|

Riff 3
------------------------|------------------------------|
9--8-----9--8-----9--8--|--9--8-----9--8-----9--8------|
------8--------8--------|--------6--------6------------|
------------------------|------------------------------|
------------------------|------------------------------|
------------------------|------------------------------|

--------------------------|---------------------------|
--9--8-----9--8-----9--8--|--9--8-----9--8-----9------|
--------6--------6--------|--------5--------5-----8---|
--------------------------|---------------------------|
--------------------------|---------------------------|
--------------------------|---------------------------|

Riff 4
--------------|--------------|------------------|--------------|
-----9--8-----|-----9--8-----|-----9--8---------|-----9--8-----|
--8--------8--|--6--------6--|--6--------6------|--5--------5--|
--------------|--------------|------------------|--------------|
--------------|--------------|------------------|--------------|
--------------|--------------|------------------|--------------|

Bridge
----------------------------------|
----------------------------------|
10--10--10--10--10--10--10--10----|
----------------------------------|
---Play this bar 6 times----------|
----------------------------------|

--------------------------------|-----------------------|
--------------------------------|-----------------------|
13--13--13--13--13--13--13--13--|--5--5--5--5--5--5--5-5|
--------------------------------|-----------------------|
--------------------------------|-----------------------|
--------------------------------|-----------------------|

--------------------------|--------------------------------|
--------------------------|--------------------------------|
--3--3--3--3--3--3--3--3--|--10--10--10--10--10--10--10--10|
--------------------------|--------------------------------|
--------------------------|--------------------------------|
--------------------------|--------------------------------|

--------------------------------|-----------------------|
--------------------------------|-----------------------|
13--13--13--13--13--13--13--13--|--5--5--5--5--5--5--5-5|
--------------------------------|-----------------------|
--------------------------------|-----------------------|
--------------------------------|-----------------------|

--------------------------|--------------------------------|
--------------------------|--------------------------------|
--3--3--3--3--3--3--3--3--|--10--10--10--10--10--10--10--10|
--------------------------|--------------------------------|
--------------------------|--------------------------------|
--------------------------|--------------------------------|

--------------------------|--------------------------------|
--------------------------|--------------------------------|
--3--3--3--3--3--3--3--3--|--10--10--10--10--10--10--10--10|
--------------------------|--------------------------------|
--------------------------|--------------------------------|
--------------------------|--------------------------------|

Guitar riff
------------|--------------|--------------|-------------|
---9--8-----|-----9--8--6--|-----9--8--6--|-----9--8----|
8--------8--|--6-----------|--6-----------|--5--------8-|
------------|--------------|--------------|-------------|
------------|--------------|--------------|-------------|
------------|--------------|--------------|-------------|

Running order
~~~~~~~~~~~~~
Main riff with Riff 2 x4 (drums +  bass after 2)
Vocals
Main riff with Riff 2 x4
Vocals and "ticking clocks"
Main riff with Riff 2 x4
Riff 3 with Riff 4 x4
Bridge
Main riff (+1 octave) with Riff 4 x2
Riff 3 with Riff 4 x4
Riff 3 with guitar riff until fade
Composição de Chris Martin / Guy Berryman / Jon Buckland / Will Champion
Colaboração e revisão:
  • Daniel Siquiera
39.005 exibições
    • ½ Tom
    • A
    • Bb
    • B
    • C
    • Db
    • D
    • Eb
    • E
    • F
    • F#
    • G
    • Ab
  • Adicionar à lista

    0 comentários

    Ver todos os comentários
    00:00 / 00:00
    Outros vídeos desta música
    Repetir Qualidade Automático
    Outros vídeos desta música
    00:00 / 00:00
    Automático

    Cifra Club Pro

    Aproveite o Cifra Club com benefícios exclusivos e sem anúncios
    Cifra Club Pro
    Aproveite o Cifra Club com benefícios exclusivos e sem anúncios
    OK