Cifra Club

Aprenda

Clocks

Coldplay

Tab de baixo: Original
(intro)(duas vezes)
G|----------------------------------------------|
D|----------------------------------------------| 
A|-66666666------------------88888888-----------|
E|----------6666666666666666--------------------|


(versos)(quatro vezes)
G|----------------------------------------------|
D|----------------------------------------------| 
A|-66666666------------------88888888-----------|
E|----------6666666666666666--------------------|


(Pré-refrão "you are")(duas vezes)
G|----------------------------------------------|
D|----------------------------------------------| 
A|-66666666-------------------------------------|
E|----------6666666666666666-11111111-----------|


(Refrão)(duas vezes)
G|----------------------------------------------|
D|----------66-888888-10-10-888-666-55----------|
A|-666666---------------------------------------|
E|--------------------------------------44444444|


(versos)(quatro vezes)
G|----------------------------------------------|
D|----------------------------------------------| 
A|-66666666------------------88888888-----------|
E|----------6666666666666666--------------------|


(Pré-refrão "you are")(quatro vezes)
G|----------------------------------------------|
D|----------------------------------------------| 
A|-66666666-------------------------------------|
E|----------6666666666666666-11111111-----------|


(Refrão)(quatro vezes)
G|----------------------------------------------|
D|----------66-888888-10-10-888-666-55----------|
A|-666666---------------------------------------|
E|--------------------------------------44444444|


(Interludio "Oh...nothing else compares....")(três vezes)
G|----------------------------------------------|
D|-4444444444444444-----------------------------|
A|-------------------44444444-------------------| 
E|----------------------------44444444----------|

(uma vez)
G|----------------------------------------------|
D|----------------------------------------------|
A|-------------------9999999999999999-----------|
E|-2222222222222222-----------------------------|



(Refrão)(quatro vezes)
G|----------------------------------------------|
D|----------66-888888-10-10-888-666-55----------|
A|-666666---------------------------------------|
E|--------------------------------------44444444|


(end riff "home,home ,where i qanted to go")(quatro vezes)
G|----------------------------------------------|
D|----------66-888888-10-10-888-666-55----------|
A|-666666---------------------------------------|
E|--------------------------------------44444444|


(fade out)
G|----------------------------------------------|
D|----------------------------------------------|
A|- 6~ ----------------------- 8~ --------------|
E|--------- 6~ ---------------------------------|
Composição de Chris Martin / Guy Berryman / Jon Buckland / Will Champion
Colaboração e revisão:
  • Vinicius Chagas
691 exibições

0 comentários

Ver todos os comentários
00:00 / 00:00
Outros vídeos desta música
Repetir Qualidade Automático
Outros vídeos desta música
00:00 / 00:00
Automático
Capítulos
  • Início
  • Tocando a música
  • Tocando Introdução
  • Ensinando Introdução
  • Tocando Primeira Parte
  • Ensinando Primeira Parte
  • Tocando Segunda Parte
  • Ensinando Segunda Parte
  • Tocando Interlúdio
  • Ensinando Interlúdio
  • Tocando Quarte Parte
  • Ensinando Quarta Parte
  • Tocando Quinta Parte e Final
  • Ensinando Quinta Parte
  • Ensinando Final
  • Encerramento

Cifra Club Pro

Aproveite o Cifra Club com benefícios exclusivos e sem anúncios
Cifra Club Pro
Aproveite o Cifra Club com benefícios exclusivos e sem anúncios
OK