Cifra Club

Aprenda

A urgência

Dead Fish

Cifra: Versão 2 (violão e guitarra)
tom: C
Guitarra 1 - Riffs:

Intro 1:
E|-----------------------------------------------------------------|
B|-----------------------------------------------------------------|
G|--------6-6-6-6-6-6-6-------6-6-6-6-------6-6-6-6-------6-6-6-6--|
D|--------------------------------------4-4------------------------|
A|--0-4-4---------------0-4-4-----------2-2---------0-5-5----------|
D|--0-4-4---------------0-4-4---------0-------------0-5-5----------|

E|---------------------------|
B|---------------------------|
G|-------6-6-6-----6-4-6/9---|
D|---------------------------|
A|--2/4----------------------|
D|--2/4----------------------|

E|--------------------------------------------------------------|
B|--------------------------------------------------------------|
G|--------6-6-6-6-6-6-6-6-------6--6--6--6--6-------------------|
D|-----------------------------------------------4-4------------|
A|--0-4-4-----------------0-4-4------------------2-2-----0-5-5--|
D|--0-4-4-----------------0-4-4----------------0---------0-5-5--|

E|---------------------------|
B|---------------------------|
G|-------6-6-6-----6-4-6/9---|
D|---------------------------|
A|--2/4----------------------|
D|--2/4----------------------|

E|--------------------------------------------------------------------|
B|------------------------------5-5-5-5-------5-5-5-5--------5-5-5-5--|
G|--------6-6-6-6-6-6-6-6---------------------------------------------|
D|----------------------------------------4-4-------------------------|
A|--0-4-4-----------------0-4-4-----------2-2----------0-5-5----------|
D|--0-4-4-----------------0-4-4---------0--------------0-5-5----------|

Intro 2:
E|---------------------------------------------|
B|---------------------------------------------|
G|--6-6-6-6/7/9/11-11/9/7/6-6-6-6-4-4-4-4-9-6--|
D|--x-x-x-x/x/x/-x--x/x/x/x-x-x-x-x-x-x-x-x-x--|
A|--4-4-4-4/5/7/-9--9/7/5/4-4-4-4-2-2-2-2-7-4--|
D|---------------------------------------------|

E|---------------------------------------------|
B|---------------------------------------------|
G|--6-6-6-6/7/9/11-11/9/7/6-6-6-6-13-13-13-13--|
D|--x-x-x-x/x/x/-x--x/x/x/x-x-x-x--x--x--x--x--|
A|--4-4-4-4/5/7/-9--9/7/5/4-4-4-4-11-11-11-11--|
D|---------------------------------------------|

Verso - Palm muted:
E|-----------------------------------------------------|
B|-----------------------------------------------------|
G|-----------------------------------------------------|
D|--4-4----------------------7-7----------0-0----------|
A|--4-4-4-4-4-4-4-4-4-4-4-4--7-7-7-7-7-7--0-0-0-0-0-0--|
D|--4-4-4-4-4-4-4-4-4-4-4-4--7-7-7-7-7-7--0-0-0-0-0-0--|

Pré-Refrão:
E|-----------------------------------------------------|
B|-----------------------------------------------------|
G|-----------------------------------------------------|
D|--4-4-4-4-4-4-4-4-4-4-4-4--7-7-7-7-7-7--0-0-0-0-0-0--|
A|--4-4-4-4-4-4-4-4-4-4-4-4--7-7-7-7-7-7--0-0-0-0-0-0--|
D|--4-4-4-4-4-4-4-4-4-4-4-4--7-7-7-7-7-7--0-0-0-0-0-0--|

E|---------------------------------------------------------|
B|---------------------------------------------------------|
G|------------------------------------------------------*--|
D|--4-4-4-4-4-4-4-4-4-4-4-4--7-7-7-7-7-7--2-2-2-2-2-2-2-2--|
A|--4-4-4-4-4-4-4-4-4-4-4-4--7-7-7-7-7-7--2-2-2-2-2-2-2-2--|
D|--4-4-4-4-4-4-4-4-4-4-4-4--7-7-7-7-7-7--2-2-2-2-2-2-2-2--|
( * = Não deixar soar o som, segurar as cordas depois de tocar)


Refrão:
E|--------------------------------------------------------------|
B|--------------------------------------------------------------|
G|--------------------------------------------------------------|
D|--0-0-0-0-0-0--2-2-2-2-2-2--3-3-3---4-4-4-4-4-4-4-4-4--7-7-7--|
A|--0-0-0-0-0-0--2-2-2-2-2-2--3-3-4---4-4-4-4-4-4-4-4-4---------|
D|--0-0-0-0-0-0--2-2-2-2-2-2--4-4-3---4-4-4-4-4-4-4-4-4---------|

E|-------------------------------------------------------|
B|-------------------------------------------------------|
G|-------------------------------------------------------|
D|--0-0-0-0-0-0--2-2-2-2-2-2--3-3-3---4-4-4-4-4-4-4-4-4--|
A|--0-0-0-0-0-0--2-2-2-2-2-2--3-3-4---4-4-4-4-4-4-4-4-4--|
D|--0-0-0-0-0-0--2-2-2-2-2-2--4-4-3---4-4-4-4-4-4-4-4-4--|

Intro 1:
E|--------------------------------------------------------------|
B|--------------------------------------------------------------|
G|--------6-6-6-6-6-6-6-------6--6--6--6------------------------|
D|-----------------------------------------4-4------------------|
A|--0-4-4---------------0-4-4--------------2-2----------0-5-5---|
D|--0-4-4---------------0-4-4------------0--------------0-5-5---|

E|---------------------------|
B|---------------------------|
G|-------6-6-6-----6-4-6/9---|
D|---------------------------|
A|--2/4----------------------|
D|--2/4----------------------|

E|--------------------------------------------------------------------|
B|------------------------------5-5-5-5-------5-5-5-5--------5-5-5-5--|
G|--------6-6-6-6-6-6-6-6---------------------------------------------|
D|----------------------------------------4-4-------------------------|
A|--0-4-4-----------------0-4-4-----------2-2----------0-5-5----------|
D|--0-4-4-----------------0-4-4---------0--------------0-5-5----------|

Verso - Palm muted:
E|-----------------------------------------------------|
B|-----------------------------------------------------|
G|-----------------------------------------------------|
D|--4-4----------------------7-7----------0-0----------|
A|--4-4-4-4-4-4-4-4-4-4-4-4--7-7-7-7-7-7--0-0-0-0-0-0--|
D|--4-4-4-4-4-4-4-4-4-4-4-4--7-7-7-7-7-7--0-0-0-0-0-0--|

Pré-Refrão:
E|-----------------------------------------------------|
B|-----------------------------------------------------|
G|-----------------------------------------------------|
D|--4-4-4-4-4-4-4-4-4-4-4-4--7-7-7-7-7-7--0-0-0-0-0-0--|
A|--4-4-4-4-4-4-4-4-4-4-4-4--7-7-7-7-7-7--0-0-0-0-0-0--|
D|--4-4-4-4-4-4-4-4-4-4-4-4--7-7-7-7-7-7--0-0-0-0-0-0--|

E|--------------------------------------------------------------|
B|--------------------------------------------------------------|
G|------------------------------------------------------------*-|
D|--4-4-4-4-4-4-4-4-4-4-4-4--7-7-7-7-7-7--2-2-2-2-2-2-2-2-----2-|
A|--4-4-4-4-4-4-4-4-4-4-4-4--7-7-7-7-7-7--2-2-2-2-2-2-2-2-----2-|
D|--4-4-4-4-4-4-4-4-4-4-4-4--7-7-7-7-7-7--2-2-2-2-2-2-2-2-----2-|
( * = Abafado)

Refrão:
E|--------------------------------------------------------------|
B|--------------------------------------------------------------|
G|--------------------------------------------------------------|
D|--0-0-0-0-0-0--2-2-2-2-2-2--3-3-3---4-4-4-4-4-4-4-4-4--7-7-7--|
A|--0-0-0-0-0-0--2-2-2-2-2-2--3-3-4---4-4-4-4-4-4-4-4-4---------|
D|--0-0-0-0-0-0--2-2-2-2-2-2--4-4-3---4-4-4-4-4-4-4-4-4---------|

E|-------------------------------------------------------|
B|-------------------------------------------------------|
G|-------------------------------------------------------|
D|--0-0-0-0-0-0--2-2-2-2-2-2--3-3-3---4-4-4-4-4-4-4-4-4--|
A|--0-0-0-0-0-0--2-2-2-2-2-2--3-3-4---4-4-4-4-4-4-4-4-4--|
D|--0-0-0-0-0-0--2-2-2-2-2-2--4-4-3---4-4-4-4-4-4-4-4-4--|

Riff no finalzinho do refrão:
E|--------------------------------------------------------------------|
B|--------------------------------------------------------------------|
G|-11-11-11-11-11-11-11-11-11-11-11/13/14-14-14/13-13-13-13/16-16-16--|
D|--x--x--x--x--x--x--x--x--x--x--x/-x/-x--x--x/-x--x--x--x/-x--x--x--|
A|--9--9--9--9--9--9--9--9--9--9--9/11/12-12-12/11-11-11-11/14-14-14--|
D|--------------------------------------------------------------------|

Continuação - Palm muted:
E|---------------------------------------------------------------------|
B|---------------------------------------------------------------------|
G|---------------------------------------------------------------------|
D|--------4-------4-------9-------0---------4-------4-------7-------0--|
A|--4-4-4-4-4-4-4-4-7-7-7-7-0-0-0-0---4-4-4-4-4-4-4-4-7-7-7-7-0-0-0-0--|
D|--4-4-4-4-4-4-4-4-7-7-7-7-0-0-0-0---4-4-4-4-4-4-4-4-7-7-7-7-0-0-0-0--|

E|-----------------------------------|
B|-----------------------------------|
G|-----------------------------------|
D|--4-------4-------7-------0--------|
A|--4-4-4-4-4-4-4-4-7-7-7-7-0-0-0-0--|
D|--4-4-4-4-4-4-4-4-7-7-7-7-0-0-0-0--|


Refrão:
E|--------------------------------------------------------------|
B|--------------------------------------------------------------|
G|--------------------------------------------------------------|
D|--0-0-0-0-0-0--2-2-2-2-2-2--3-3-3---4-4-4-4-4-4-4-4-4--7-7-7--|
A|--0-0-0-0-0-0--2-2-2-2-2-2--3-3-4---4-4-4-4-4-4-4-4-4---------|
D|--0-0-0-0-0-0--2-2-2-2-2-2--4-4-3---4-4-4-4-4-4-4-4-4---------|

E|-------------------------------------------------------|
B|-------------------------------------------------------|
G|-------------------------------------------------------|
D|--0-0-0-0-0-0--2-2-2-2-2-2--3-3-3---4-4-4-4-4-4-4-4-4--|
A|--0-0-0-0-0-0--2-2-2-2-2-2--3-3-4---4-4-4-4-4-4-4-4-4--|
D|--0-0-0-0-0-0--2-2-2-2-2-2--4-4-3---4-4-4-4-4-4-4-4-4--|

Final - Palm muted:
E|---------------------------------------------------------------------------|
B|---------------------------------------------------------------------------|
G|--6/11-11-11-11-11-11-11-11-11-11-11-11-11-11-11-11-11-11-11-11-11-11------|
D|--x--x--x--x--x--x--x--x--x--x--x--x--x--x--x--x--x--x--x--x--x--x--x------|
A|--4/-9--9--9--9--9--9--9--9--9--9--9--9--9--9--9--9--9--9--9--9--9--9---0--|
D|------------------------------------------------------------------------0--|


Guitarra 2 - Riffs:

Intro 1:
E|-----------------------------------------|
B|-----------------------------------------|
G|-----------------------------------------|
D|-----------------------------------------|
A|-----------------------------------------|
D|--7-4-2----7-4-2------------4-2-4-7-4-2--|

E|------------------------------------------------------------------|
B|------------------------------------------------------------------|
G|------------------------------------------------------------------|
D|--------7-7-7-7-7-7-7--------7-7-7-7--------7-7-7-7-------7-7-7-7-|
A|------------------------------------------------------------------|
D|------------------------------------------------------------------|

Intro 2:
E|---------------------------------------------------|
B|---------------------------------------------------|
G|---------------------------------------------------|
D|--4-4-4-4-4-4-0-0-0-0-0-0-7-7-7-7-7-7-2-2-2-2-2-2--|
A|--4-4-4-4-4-4-0-0-0-0-0-0-7-7-7-7-7-7-2-2-2-2-2-2--|
D|--4-4-4-4-4-4-0-0-0-0-0-0-7-7-7-7-7-7-2-2-2-2-2-2--|

Verso:
E|--------------------------------------------------9-------|
B|---------------------------------------------10-----10----|
G|-------------------------------------------9----9------9--|
D|----------------------------------------------------------|
A|----------------------------------------------------------|
D|----------------------------------------------------------|

Pré-Refrão:
E|--------------------------------------------------------------------------|
B|--------------------------------------------------------------------------|
G|--14-14-14-14-14-14-14-14-14-14-14-14/16-16-16-16-16-16/13-13-13/16-16-16-|
D|---x--x--x--x--x--x--x--x--x--x--x--x/-x--x--x--x--x--x/-x--x--x/-x--x--x-|
A|--12-12-12-12-12-12-12-12-12-12-12-12/14-14-14-14-14-14/11-11-11/14-14-14-|
D|--------------------------------------------------------------------------|

E|------------------------------------------------------------------------------|
B|------------------------------------------------------------------------------|
G|--14-14-14-14-14-14-14-14-14-14/18-18-18-18-18-18-18/13-13-13-13-13-13-13-13--|
D|---x--x--x--x--x--x--x--x--x--x/-x--x--x--x--x--x--x/-x--x--x--x--x--x--x--x--|
A|--12-12-12-12-12-12-12-12-12-12/16-16-16-16-16-16-16/11-11-11-11-11-11-11-11--|
D|------------------------------------------------------------------------------|

Refrão:
E|--------------------------------------------------------------------|
B|--------------------------------------------------------------------|
G|-----------------------------------6-6-6----------------------------|
D|--0-0-0-0-0-0--2-2-2-2-2-2--3-3-3--x-x-x--4-4-4-4-4-4-4-4-4--x-x-x--|
A|--0-0-0-0-0-0--2-2-2-2-2-2--4-4-4--4-4-4--4-4-4-4-4-4-4-4-4--x-x-x--|
D|--0-0-0-0-0-0--2-2-2-2-2-2----------------4-4-4-4-4-4-4-4-4--x-x-x--|

Refrão:
E|-----------------------------------------|
B|-----------------------------------------|
G|-----------------------------------------|
D|-----------------------------------------|
A|-----------------------------------------|
D|--7-4-2----7-4-2------------4-2-4-7-4-2--|

E|------------------------------------------------------------------|
B|------------------------------------------------------------------|
G|------------------------------------------------------------------|
D|--------7-7-7-7-7-7-7--------7-7-7-7--------7-7-7-7-------7-7-7-7-|
A|------------------------------------------------------------------|
D|------------------------------------------------------------------|

Verso:
E|--------------------------------------------------9-------|
B|---------------------------------------------10-----10----|
G|-------------------------------------------9----9------9--|
D|----------------------------------------------------------|
A|----------------------------------------------------------|
D|----------------------------------------------------------|

Pré-Refrão:
E|--------------------------------------------------------------------------|
B|--------------------------------------------------------------------------|
G|--14-14-14-14-14-14-14-14-14-14-14-14/16-16-16-16-16-16/13-13-13/16-16-16-|
D|---x--x--x--x--x--x--x--x--x--x--x--x/-x--x--x--x--x--x/-x--x--x/-x--x--x-|
A|--12-12-12-12-12-12-12-12-12-12-12-12/14-14-14-14-14-14/11-11-11/14-14-14-|
D|--------------------------------------------------------------------------|

E|------------------------------------------------------------------------------|
B|------------------------------------------------------------------------------|
G|--14-14-14-14-14-14-14-14-14-14/18-18-18-18-18-18-18/13-13-13-13-13-13-13-13--|
D|---x--x--x--x--x--x--x--x--x--x/-x--x--x--x--x--x--x/-x--x--x--x--x--x--x--x--|
A|--12-12-12-12-12-12-12-12-12-12/16-16-16-16-16-16-16/11-11-11-11-11-11-11-11--|
D|------------------------------------------------------------------------------|

Refrão:
E|--------------------------------------------------------------------|
B|--------------------------------------------------------------------|
G|-----------------------------------6-6-6----------------------------|
D|--0-0-0-0-0-0--2-2-2-2-2-2--3-3-3--x-x-x--4-4-4-4-4-4-4-4-4--x-x-x--|
A|--0-0-0-0-0-0--2-2-2-2-2-2--4-4-4--4-4-4--4-4-4-4-4-4-4-4-4--x-x-x--|
D|--0-0-0-0-0-0--2-2-2-2-2-2----------------4-4-4-4-4-4-4-4-4--x-x-x--|

Riff no finalzinho do refrão:
E|---------------------------------------------------|
B|---------------------------------------------------|
G|---------------------------------------------------|
D|--0-0-0-0-0-0-0-0-0-0-0-0-2-2-2-2-2-2-2-2-2-2-2-2--|
A|--0-0-0-0-0-0-0-0-0-0-0-0-2-2-2-2-2-2-2-2-2-2-2-2--|
D|--0-0-0-0-0-0-0-0-0-0-0-0-2-2-2-2-2-2-2-2-2-2-2-2--|

Continuação:
E|--------------------------------------------------------------------------|
B|-------------------------------------17-17-17-17-17-17/14-14-14-----------|
G|-13-13-13-13/14/16/14-14-14-14-14-14--x--x--x--x--x--x/-x--x--x-16-16-16--|
D|--x--x--x--x/-x/-x/-x--x--x--x--x--x-14-14-14-14-14-14/11-11-11--x--x--x--|
A|-11-11-11-11/12/14/12-12-12-12-12-12----------------------------14-14-14--|
D|--------------------------------------------------------------------------|

E|-----------------------------------------------------------------------------|
B|-----------------------------------------------------------------------------|
G|-13-13-13-13-14-16-14-14-14-14-14-14-14-14-14-14-14-16-16-16-16-16-16-16-16--|
D|--x--x--x--x--x--x--x--x--x--x--x--x--x--x--x--x--x--x--x--x--x--x--x--x--x--|
A|-11-11-11-11-12-14-12-12-12-12-12-12-12-12-12-12-12-14-14-14-14-14-14-14-14--|
D|-----------------------------------------------------------------------------|

Refrão:
E|--------------------------------------------------------------------|
B|--------------------------------------------------------------------|
G|-----------------------------------6-6-6----------------------------|
D|--0-0-0-0-0-0--2-2-2-2-2-2--3-3-3--x-x-x--4-4-4-4-4-4-4-4-4--x-x-x--|
A|--0-0-0-0-0-0--2-2-2-2-2-2--4-4-4--4-4-4--4-4-4-4-4-4-4-4-4--x-x-x--|
D|--0-0-0-0-0-0--2-2-2-2-2-2----------------4-4-4-4-4-4-4-4-4--x-x-x--|

Final - Palm muted:
E|------------------------------------|
B|------------------------------------|
G|------------------------------------|
D|--------4-------4---------9-------0-|
A|--4-4-4-4-4-4-4-4-7-7-7-7-7-0-0-0-0-|
D|--4-4-4-4-4-4-4-4-7-7-7-7-7-0-0-0-0-|
Composição de Dead Fish
19.487 exibições
    • ½ Tom
    • A
    • Bb
    • B
    • C
    • Db
    • D
    • Eb
    • E
    • F
    • F#
    • G
    • Ab
  • Adicionar à lista

    0 comentários

    Ver todos os comentários

    Conseguiu tocar?

    2 Tocaram 0 Ainda não

    Grave um vídeo tocando A urgência e nos envie!

    00:00 / 00:00
    outros vídeos desta música
    repetir qualidade Automático
    Outros vídeos desta música
    00:00 / 00:00
    Automático

    Cifra Club Pro

    Aproveite o Cifra Club com benefícios exclusivos e sem anúncios
    Cifra Club Pro
    Aproveite o Cifra Club com benefícios exclusivos e sem anúncios
    OK