Cifra Club

Aprenda

A urgência

Dead Fish

Cifra: Versão 3 (violão e guitarra)
tom: C
Guitarrista: Philippe 
 
Intro 1 
E|--------------------------------------------------------------| 
B|--------2-2-2-2-2-2-2------2-2-2-2-------2-2-2-2-----2-2-2-2--| 
G|--------------------------------------------------------------| 
D|-------------------------------------4-4----------------------| 
A|--2-4-4----------------4-4-----------2-2---------5-5----------| 
D|--2-4-4----------------4-4---------2-------------5-5----------| 
 
E|-----------------------b-----| 
B|---------2-2-2---2-0-2-5-2-0-| 
G|-----------------------------| 
D|-----------------------------| 1x - repete a parte de cima 
A|--2-4-4----------------------| 
D|--2-4-4----------------------| 
 
Riff 1          *=tocar 6x 
E|----------------------------------------------------------------------------| 
B|----------------------------------------------------------------------------| 
G|-6-6-6-6-7-9-11-11-11-9-7-4-4-4-4-9-7-6-6-6-6-7-9-11-11-11-6-6-6-6-7-6-13*--| 
D|-x-x-x-x-x-x--x--x--x-x-x-x-x-x-x-x-x-x-x-x-x-x-x--x--x--x-x-x-x-x-x-x--x---| 
A|-4-4-4-4-5-7--9--9--9-7-5-2-2-2-2-7-5-4-4-4-4-5-7--9--9--9-4-4-4-4-5-4-11*--| 
D|----------------------------------------------------------------------------| 
 
Verso 
E|--------------------------------------------------9-------| 
B|---------------------------------------------10-----10----| 
G|-------------------------------------------9----9------9--| 
D|--4------------------------7------------0-----------------| 
A|--4-4-4-4-4-4-4-4-4-4-4-4--7-7-7-7-7-7--0-----------------| 
D|--4-4-4-4-4-4-4-4-4-4-4-4--7-7-7-7-7-7--0-----------------| 
PM    * * * * * * * * * * *    * * * * *  
 
Verso pt2 
E|-----------------------------------------------------| 
B|-----------------------------------------------------| 
G|-----------------------------------------------------| 
D|--4------------------------7------------2------------| 
A|--4-4-4-4-4-4-4-4-4-4-4-4--7-7-7-7-7-7--2-2-2-2-2-2--| 
D|--4-4-4-4-4-4-4-4-4-4-4-4--7-7-7-7-7-7--2-2-2-2-2-2--| 
PM    * * * * * * * * * * *    * * * * *    * * * * *  
 
Riff 2 
E|-----------------------------------------------------| 
B|-----------------------------------------------------| 
G|-----------------------------------------------------| 
D|--4-4-4-4-4-4-4-4-4-4-4-4--7-7-7-7-7-7--0-0-0-0-0-0--| 
A|--4-4-4-4-4-4-4-4-4-4-4-4--7-7-7-7-7-7--0-0-0-0-0-0--| 
D|--4-4-4-4-4-4-4-4-4-4-4-4--7-7-7-7-7-7--0-0-0-0-0-0--| 
 
Riff 1 pt 2 
E|---------------------------------------------------------| 
B|---------------------------------------------------------| 
G|---------------------------------------------------------| 
D|--4-4-4-4-4-4-4-4-4-4-4-4--7-7-7-7-7-7--2-2-2-2-2-2-2-2--| 
A|--4-4-4-4-4-4-4-4-4-4-4-4--7-7-7-7-7-7--2-2-2-2-2-2-2-2--| 
D|--4-4-4-4-4-4-4-4-4-4-4-4--7-7-7-7-7-7--2-2-2-2-2-2-2-2--| 
 
 
Refrão 
E|-------------------------------------------------------------------| 
B|-------------------------------------------------------------------| 
G|----------------------------------2-2-2----------------------------| 
D|--0-0-0-0-0-0--2-2-2-2-2-2--3-3-3-3-3-3--4-4-4-4-4-4-4-4-4--7-7-7--| 
A|--0-0-0-0-0-0--2-2-2-2-2-2--4-4-4-4-2-0--4-4-4-4-4-4-4-4-4---------| 
D|--0-0-0-0-0-0--2-2-2-2-2-2--3-3-3--------4-4-4-4-4-4-4-4-4---------| 
 
E|------------------------------------------------------------| 
B|------------------------------------------------------------| 
G|----------------------------------2-2-2---------------------| 
D|--0-0-0-0-0-0--2-2-2-2-2-2--3-3-3-3-3-3--4-4-4-4-4-4-4-4-4--| 
A|--0-0-0-0-0-0--2-2-2-2-2-2--4-4-4-4-2-0--4-4-4-4-4-4-4-4-4--| 
D|--0-0-0-0-0-0--2-2-2-2-2-2--3-3-3--------4-4-4-4-4-4-4-4-4--| 
 
Intro 1 - Modelo 2 
E|--------------------------------------------------------------| 
B|--------2-2-2-2-2-2-2-2-------2--2--2--2--2-------------------| 
G|--------------------------------------------------------------| 
D|-----------------------------------------------4-4------------| 
A|--2-4-4-----------------2-4-4------------------2-2-------5-5--| 
D|--2-4-4-----------------2-4-4----------------2---------2-5-5--| 
 
E|-----------------------b------| 
B|---------2-2-2---2-0-2-5-2-0--| 
G|------------------------------| 
D|------------------------------| 
A|---2-4-4----------------------| 
D|---2-4-4----------------------| 
 
E|--------------------------------------------------------------------| 
B|--------2-2-2-2-2-2-2-2-------5-5-5-5-------5-5-5-5--------5-5-5-5--| 
G|--------------------------------------------------------------------| 
D|----------------------------------------4-4-------------------------| 
A|--2-4-4-----------------2-4-4-----------2-2----------2-5-5----------| 
D|--2-4-4-----------------2-4-4---------2--------------2-5-5----------| 
 
Refrao Riff 
E|-------------------------------------------------------------------------| 
B|-------------------------------------------------------------------------| 
G|-11-11-11-11-11-11-11-11-11-11-11-13-14-13-13-13-13-13-13--9-9-9--x-x-x--| 
D|--x--x--x--x--x--x--x--x--x--x--x--x--x--x--x--x--x--x--x--x-x-x--x-x-x--| 
A|--9--9--9--9--9--9--9--9--9--9--9-11-12-11-11-11-11-11-11--7-7-7--x-x-x--| 
D|-------------------------------------------------------------------------| 
 
Outro 
E|---------------------------------------------------------------------| 
B|---------------------------------------------------------------------| 
G|---------------------------------------------------------------------| 
D|--------4-------4-------9-------0---------4-------4-------7-------0--| 
A|--4-4-4-4-4-4-4-4-7-7-7-7-0-0-0-0---4-4-4-4-4-4-4-4-7-7-7-7-0-0-0-0--| 
D|--4-4-4-4-4-4-4-4-7-7-7-7-0-0-0-0---4-4-4-4-4-4-4-4-7-7-7-7-0-0-0-0--| 
  * * *   * * *   * * *   * * *     * * *   * * *   * * *   * * * 
 
Fim 
E|---------------------------------------------------------------------------| 
B|---------------------------------------------------------------------------| 
G|--6/11-11-11-11-11-11-11-11-11-11-11-11-11-11-11-11-11-11-11-11-11-11------| 
D|--x--x--x--x--x--x--x--x--x--x--x--x--x--x--x--x--x--x--x--x--x--x--x------| 
A|--4/-9--9--9--9--9--9--9--9--9--9--9--9--9--9--9--9--9--9--9--9--9--9---0--| 
D|------------------------------------------------------------------------0--| 
 
 
Guitarrista: Hóspede 
 
Intro 1 
E|------------------------------------------------------------| 
B|------------------------------------------------------------| 
G|------------------------------------------------------------| 
D|----------------------------4-4-----------------------------| 
A|--2-4-4--2------4-4--2------2-2----5-5----4-4--------2------| 
D|--2-4-4----4-2--4-4----4-2-------2-5-5--2-4-4--4-2-4---4-2--| 
 
Intro 2 
E|-------------------------------------------------------------| 
B|-------------------------------------------------------------| 
G|--------2-2-2-2-2-2-2-----2-2-2-2-------2-2-2-2-----2-2-2-2--| 
D|------------------------------------4-4----------------------| 
A|--2-4-4---------------4-4-----------2-2---------5-5----------| 
D|--2-4-4---------------4-4---------2-------------5-5----------| 
 
Riff 1 
E|---------------------------------------------------| 
B|---------------------------------------------------| 
G|---------------------------------------------------| 
D|--4-4-4-4-4-4-0-0-0-0-0-0-7-7-7-7-7-7-2-2-2-2-2-2--| 
A|--4-4-4-4-4-4-0-0-0-0-0-0-7-7-7-7-7-7-2-2-2-2-2-2--| 
D|--4-4-4-4-4-4-0-0-0-0-0-0-7-7-7-7-7-7-2-2-2-2-2-2--| 
 
Verso 
E|--------------------------------------------------9-------| 
B|---------------------------------------------10-----10----| 
G|-------------------------------------------9----9------9--| 
D|--4------------------------7------------0-----------------| 
A|--4-4-4-4-4-4-4-4-4-4-4-4--7-7-7-7-7-7--0-----------------| 
D|--4-4-4-4-4-4-4-4-4-4-4-4--7-7-7-7-7-7--0-----------------| 
PM    * * * * * * * * * * *    * * * * *  
 
Verso pt 2  
E|-----------------------------------------------------| 
B|-----------------------------------------------------| 
G|-----------------------------------------------------| 
D|--4------------------------7------------2------------| 
A|--4-4-4-4-4-4-4-4-4-4-4-4--7-7-7-7-7-7--2-2-2-2-2-2--| 
D|--4-4-4-4-4-4-4-4-4-4-4-4--7-7-7-7-7-7--2-2-2-2-2-2--| 
PM    * * * * * * * * * * *    * * * * *    * * * * *  
 
Riff 2 
E|--------------------------------------------------------------| 
B|--9-9-9-9-9-9-9-9-9-9-9-9-12-12-12-12-12-12--9-9-9--12-12-12--| 
G|--x-x-x-x-x-x-x-x-x-x-x-x--x--x--x--x--x--x--x-x-x---x--x--x--| 
D|--7-7-7-7-7-7-7-7-7-7-7-7--9--9--9--9--9--9--6-6-6---9--9--9--| 
A|--------------------------------------------------------------| 
D|--------------------------------------------------------------| 
 
 
Riff 1 pt 2   
E|------------------------------------------------------------------| 
B|--9-9-9-9-9-9-9-9-9-9-9-9--14-14-14-14-14-14-14--9-9-9-9-9-9-9-9--| 
G|--x-x-x-x-x-x-x-x-x-x-x-x---x--x--x--x--x--x--x--x-x-x-x-x-x-x-x--| 
D|--7-7-7-7-7-7-7-7-7-7-7-7--11-11-11-11-11-11-11--6-6-6-6-6-6-6-6--| 
A|------------------------------------------------------------------| 
D|------------------------------------------------------------------| 
 
Refrão 
E|--------------------------------------------------------------------| 
B|--------------------------------------------------------------------| 
G|--2-2-2-2-2-2---------------2-2-2--6-6-6----------------------------| 
D|--0-0-0-0-0-0--2-2-2-2-2-2--3-3-3--x-x-x--4-4-4-4-4-4-4-4-4--x-x-x--| 
A|--0-0-0-0-0-0--2-2-2-2-2-2--4-0----4-4-4--4-4-4-4-4-4-4-4-4--x-x-x--| 
D|--0-0-0-0-0-0--2-2-2-2-2-2------3---------4-4-4-4-4-4-4-4-4--x-x-x--| 
 
Refrão Riff Guitarra Philippe 
E|---------------------------------------------------| 
B|---------------------------------------------------| 
G|---------------------------------------------------| 
D|--0-0-0-0-0-0-0-0-0-0-0-0-2-2-2-2-2-2-2-2-2-2-2-2--| 
A|--0-0-0-0-0-0-0-0-0-0-0-0-2-2-2-2-2-2-2-2-2-2-2-2--| 
D|--0-0-0-0-0-0-0-0-0-0-0-0-2-2-2-2-2-2-2-2-2-2-2-2--| 
 
Riff Hóspede Junto com o Riff 1 do Philippe 
E|-----------------------------------------------------------------------| 
B|--9-9-9-9-10-12-10-10-10-10-10-10-17-17-17-17-17-17-14-14-14-12-12-12--| 
G|--x-x-x-x--x--x--x--x--x--x--x--x--x--x--x--x--x--x--x--x--x--x--x--x--| 
D|--6-6-6-6--7--9--7--7--7--7--7--7-14-14-14-14-14-14-11-11-11--9--9--9--| 
A|-----------------------------------------------------------------------| 
D|-----------------------------------------------------------------------| 
 
E|-----------------------------------------------------------------------------| 
G|--9-9-9-9-10-12-10-10-10-10-10-10-10-10-10-10-10-10-10-12-12-12-12-12-12-12--| 
D|--x-x-x-x--x--x--x--x--x--x--x--x--x--x--x--x--x--x--x--x--x--x--x--x--x--x--| 
A|--6-6-6-6--7--9--7--7--7--7--7--7--7--7--7--7--7--7--7--9--9--9--9--9--9--9--| 
E|-----------------------------------------------------------------------------| 
D|-----------------------------------------------------------------------------| 
 
Fim 
E|------------------------------------|--|-------------------------|-----| 
B|------------------------------------|--|----------12-----9--9--9-|-----| 
G|------------------------------------|--|-11-11-11-11-11-11-11-11-|-----| 
D|--------4-------4---------9-------0-|3x|-------------------------|-----| 
A|--4-4-4-4-4-4-4-4-7-7-7-7-7-0-0-0-0-|--|-------------------------|--0--| 
D|--4-4-4-4-4-4-4-4-7-7-7-7-7-0-0-0-0-|--|----------------------^--|--0--| 
PM  * * *   * * *   * * * *   * * *    
Composição de Dead Fish
Colaboração e revisão:
  • Gregory Almeida
5.731 exibições
    • ½ Tom
    • A
    • Bb
    • B
    • C
    • Db
    • D
    • Eb
    • E
    • F
    • F#
    • G
    • Ab
  • Adicionar à lista

    0 comentários

    Ver todos os comentários

    Conseguiu tocar?

    0 Tocaram 0 Ainda não

    Grave um vídeo tocando A urgência e nos envie!

    00:00 / 00:00
    outros vídeos desta música
    repetir qualidade Automático
    Outros vídeos desta música
    00:00 / 00:00
    Automático

    Cifra Club Pro

    Aproveite o Cifra Club com benefícios exclusivos e sem anúncios
    Cifra Club Pro
    Aproveite o Cifra Club com benefícios exclusivos e sem anúncios
    OK