Cifra Club

Dynamics

Devin Townsend

Cifra: Principal (violão e guitarra)
Selo Cifra Club: esta cifra foi revisada para atender aos critérios oficiais da nossa Equipe de Qualidade.
tom: D
[Intro]
E|---------------------------------------------------------------------------|
B|---------------------------------------------------------------------------|
G|------------------0------------------------------0-------------------------| X3
D|--------0------------------------------0-----------------------------------|
A|---------------------------------------------------------------------------|
E|---5---------5------------------5/9-9-------9-------------------------9/---|

E|---------------------------------------------------------------------------|
B|-------------------------------------------------------0-------------------|
G|--------0---------0------------------------------0-------------------------|
D|---------------------------------------0-----------------------------------|
A|---------------------------------------------------------------------------|
E|---5---------5------------------5/9-9-------9------------------------------|

[Verse 1]
E|---------------------------------------------------------------------------|
B|---------------------------------------------------------------------------|
G|------------------0------------------------------0-------------------------| X3
D|--------0------------------------------0-----------------------------------|
A|---------------------------------------------------------------------------|
E|---5---------5------------------5/9-9-------9-------------------------9/---|
 Winter hides the dead                         Just like Summer ends too soon
 Springing forth the new knowing               
E|---------------------------------------------------------------------------|
B|-------------------------------------------------------0-------------------|
G|-----------------0------------------------------0--------------------------|
D|--------0-------------------------------0----------------------------------|
A|---------------------------------------------------------------------------|
E|---5---------5------------------5/9-9-------9------------------------------|
Autumn is the tomb

E|---------------------------------------------------------------------------|
B|---------------------------------------------------------------------------|
G|------------------0------------------------------0-------------------------| X3
D|--------0------------------------------0-----------------------------------|
A|---------------------------------------------------------------------------|
E|---5---------5------------------5/9-9-------9-------------------------9/---|
 And I'll wait for you                         'Cause it's waiting for you
E|---------------------------------------------------------------------------|
B|-------------------------------------------------------0-------------------|
G|--------0---------0------------------------------0-------------------------|
D|---------------------------------------0-----------------------------------|
A|---------------------------------------------------------------------------|
E|---5---------5------------------5/9-9-------9------------------------------|

[Verse 2]
E|---------------------------------------------------------------------------|
B|---------------------------------------------------------------------------|
G|------------------0------------------------------0-------------------------| X3
D|--------0------------------------------0-----------------------------------|
A|---------------------------------------------------------------------------|
E|---5---------5------------------5/9-9-------9-------------------------9/---|
 Living hides the dead just like                Suns and earth and moon
 Springing forth the new knowing
E|---------------------------------------------------------------------------|
B|-------------------------------------------------------0-------------------|
G|--------0---------0------------------------------0-------------------------|
D|---------------------------------------0-----------------------------------|
A|---------------------------------------------------------------------------|
E|---5---------5------------------5/9-9-------9------------------------------|
 Flowers need to bloom

E|---------------------------------------------------------------------------|
B|---------------------------------------------------------------------------|
G|------------------0------------------------------0-------------------------| X3
D|--------0------------------------------0-----------------------------------|
A|---------------------------------------------------------------------------|
E|---5---------5------------------5/9-9-------9-------------------------9/---|
 And I'll wait for you                         'Cause it's waiting for you
E|---------------------------------------------------------------------------|
B|---------------------------------------------------------------------------|
G|--------0---------0------------------------------0-------------------------|
D|---------------------------------------0-----------------------------------|
A|---------------------------------------------------------------------------|
E|---5---------5------------------5/9-9-------9------------------------------|


E|---------------------------------------------------------------------------|
B|---------------------------------------------------------------------------|
G|---------------------------------------------------------------------------| X2
D|---2------2-----2-2-2----0------0-------8-8-8-8/10--10---------------------|
A|---2------2-----2-2-2----0------0-------8-8-8-8/10--10---------------------|
E|---2------2-----2-2-2----0------0-------8-8-8-8/10--10---------------------|
 Unsure? Well, here's help with the wait
                                         
 The heavens move and the earth will quake
E|---------------------------------------------------------------------------|
B|---------------------------------------------------------------------------|
G|---------------------------------------------------------------------------|
D|---4------4-----4-4-4----0------0-----0------------------------------------|
A|---4------4-----4-4-4----0------0-----0------------------------------------|
E|---4------4-----4-4-4----0------0-----0------------------------------------|
 And now god has failed as a metaphor
E|---------------------------------------------------------------------------|
B|---------------------------------------------------------------------------|
G|---------------------------------------------------------------------------|
D|---4------4-----4-4-4----2------2-----2------------------------------------|
A|---4------4-----4-4-4----2------2-----2------------------------------------|
E|---4------4-----4-4-4----2------2-----2------------------------------------|
 There's only awe forever more
[Chorus 1]
E|---------------------------------------------------------------------------|
B|---------------------------------------------------------------------------|
G|---------------------------------------------------------------------------| X4
D|---4-----5--5--5---------2-------------------------------------------------|
A|---4-----5--5--5---------2-------------------------------------------------|
E|---4-----5--5--5---------2-------------------------------------------------|
 Life is all dynamics
                       
 Life is all... Dynamics
                            
 There's life in all dynamics

[Bridge]                   
E|------------------------------------------------------------------------------------------------|
B|------------------------------------------------------------------------------------------------|
G|------------------------------------------------------------------------------------------------| X3
D|--4---4---4/1-1-1-1---4---4---4/1-1-1-1----4---4---4/1-1-1-1---4---------------1-1-1------------|
A|--4---4---4/1-1-1-1---4---4---4/1-1-1-1----4---4---4/1-1-1-1---4---------------1-1-1------------|
E|--4---4---4/1-1-1-1---4---4---4/1-1-1-1| ---4---4---4/1-1-1-1---4---6^(7)-(7)/1-1-1-1------------|
(bend the 4 before the slide sometimes or use ring finger on 6 and bend a bit there)
 Life..... is all...... dynamics
[Verse 3]
E|---------------------------------------------------------------------------|
B|---------------------------------------------------------------------------|
G|---------------------------------------------------------------------------| X4
D|---6---6---6-6-6/2--2---2---2-2-2------------------------------------------|
A|---6---6---6-6-6/2--2---2---2-2-2------------------------------------------|
E|---6---6---6-6-6/2--2---2---2-2-2------------------------------------------|
 Unsure? Well, here's help with the weight
                                      
 There's only "god" for "heaven's" sake
                                       
 There's only one key to unlock the door
                         
 You must get the metaphor
E|---------------| |---------------------------------------------------------|
B|---------------| |---------------------------------------------------------|
G|---------------| or |--7--11--14--15-------14----------------------------------|
D|---2--2--2-----| |---------------------------------------------------------|
A|---2--2--2-----| |---------------------------------------------------------|
E|---2--2--2-----| |---------------------------------------------------------|

 until end of song






************************************

| /  Slide up
 and slide down
| ^ bend up 
| (note) the note you bend up to
| X2 or X3 etc repeat the number of times stated 
Outros vídeos desta música
    0 exibições
      • ½ Tom
      • A
      • Bb
      • B
      • C
      • Db
      • D
      • Eb
      • E
      • F
      • F#
      • G
      • Ab
    • Adicionar à lista

    Afinação da cifra

    Afinador online

      0 comentários

      Ver todos os comentários

      Conseguiu tocar?

      0Tocaram0Ainda não

      Grave um vídeo tocando Dynamics e nos envie!

      Toque também

      1. Imagem do artista Strapping Young LadImperial Strapping Young Lad
      2. Imagem do artista AyreonCarried By The Wind Ayreon
      3. Imagem do artista Pain of SalvationBlack Hills Pain of Salvation
      4. Imagem do artista Devin Townsend BandDeadhead Devin Townsend Band

      Entre para o Cifra Club PRO

      Tenha acesso a benefícios exclusivos no App e no Site

      • Chega de anúncios

      • Badges exclusivas

      • Mais recursos no app do Afinador

      • Atendimento Prioritário

      • Aumente seu limite de lista

      • Ajude a produzir mais conteúdo

      Cifra Club Pro

      Aproveite o Cifra Club com benefícios exclusivos e sem anúncios
      Cifra Club Pro
      Aproveite o Cifra Club com benefícios exclusivos e sem anúncios
      Ops (: Contenido disponible sólo en portugués.
      OK