Cifra Club

Suicide

Devin Townsend

Cifra: Principal (violão e guitarra)
Selo Cifra Club: esta cifra foi revisada para atender aos critérios oficiais da nossa Equipe de Qualidade.
tom: C
D||------------------|-----------------|-----------------|-----------------|
A||------------------|-----------------|-----------------|-----------------|
F||------------------|-----------------|-----------------|-----------------|
C||------------------|-----------------|-----------------|-----------------|
G||--------5--4------|--1----4--5------|-------5--4------|--1----4--5------|
C||--0---------------|-----------------|--0--------------|-----------------|


  Q    E  Q.        Q    E  Q.        Q    E  Q.        Q    E  Q.      
E|-----------------|-----------------|-----------------|-----------------|
B|-----------------|-----------------|-----------------|-----------------|
G|-----------------|-----------------|-----------------|-----------------|
D|-----------------|-----------------|-----------------|-----------------|
A|-------5--4------|--1----4--5------|-------5--4------|--1----4--5------|
E|--0--------------|-----------------|--0--------------|-----------------|


  Dist. Low Gain                                                        
  PM             PM PM PM PM PM PM PM PM PM    PM PM PM PM PM PM PM PM  
  E              S  S  S  S  E  S  S  S  S     E  S  S  S  S  E  E  E   
E|--------------------------------------------|--------------------------|
B|--------------------------------------------|--------------------------|
G|--------------------------------------------|--------------------------|
D|--------------------------------------------|--------------------------|
A|--3--------------0--0--0--0--3--0--0--0--0--|--3--0--0--0--0--5--5--5--|
E|--3--------------0--0--0--0--3--0--0--0--0--|--3--0--0--0--0--5--5--5--|


  PM PM PM PM PM PM PM PM PM PM    PM PM PM PM PM              
  E  S  S  S  S  E  S  S  S  S     E  S  S  S  S  E   S E   S  
E|--------------------------------|-----------------------------|
B|--------------------------------|-----------------------------|
G|--------------------------------|-----------------------------|
D|--------------------------------|-----------------------------|
A|--3--0--0--0--0--3--0--0--0--0--|--3--0--0--0--0------0-----0-|
E|--3--0--0--0--0--3--0--0--0--0--|--3--0--0--0--0--5b----5b----|


                                                              Gain up       
  PM PM PM PM PM PM PM PM PM PM    PM PM PM PM PM PM PM PM    PM            
  E  S  S  S  S  E  S  S  S  S     E  S  S  S  S  E  E  E     H.            
E|--------------------------------|--------------------------|---------------|
B|--------------------------------|--------------------------|---------------|
G|--------------------------------|--------------------------|---------------|
D|--------------------------------|--------------------------|---------------|
A|--3--0--0--0--0--3--0--0--0--0--|--3--0--0--0--0--5--5--5--|--0------------|
E|--3--0--0--0--0--3--0--0--0--0--|--3--0--0--0--0--5--5--5--|--0------------|


  Tight ass palm mute                                                           
                                                    PM PM PM PM    PM PM PM PM  
  S                   S S S S S S S S S S S      E  S  S  S  S  E  S  S  S  S   
E|--------------------------------------------| |---------------------------------|
B|--------------------------------------------| |---------------------------------|
G|--------------------------------------------| |*--------------------------------|
D|--------------------------------------------| |*--3--0--0--0--0--3--0--0--0--0--|
A|--x-------------------x---x---x-x-x---x---x-| |---3--0--0--0--0--3--0--0--0--0--|
E|--x-------------------x---x---x-x-x---x---x-| |---3--0--0--0--0--3--0--0--0--0--|


     PM PM PM PM                PM PM PM PM    PM PM PM PM  
  E  S  S  S  S  E  E  E     E  S  S  S  S  E  S  S  S  S   
E|--------------------------|--------------------------------|
B|--------------------------|--------------------------------|
G|--------------------------|--------------------------------|
D|--3--0--0--0--0--5--5--5--|--3--0--0--0--0--3--0--0--0--0--|
A|--3--0--0--0--0--5--5--5--|--3--0--0--0--0--3--0--0--0--0--|
E|--3--0--0--0--0--5--5--5--|--3--0--0--0--0--3--0--0--0--0--|


     PM PM PM PM                   PM PM PM PM    PM PM PM PM  
  E  S  S  S  S  E   S E   S    E  S  S  S  S  E  S  S  S  S   
E|-----------------------------|--------------------------------|
B|-----------------------------|--------------------------------|
G|-----------------------------|--------------------------------|
D|--3--0--0--0--0--------------|--3--0--0--0--0--3--0--0--0--0--|
A|--3--0--0--0--0------0-----0-|--3--0--0--0--0--3--0--0--0--0--|
E|--3--0--0--0--0--5b----5b----|--3--0--0--0--0--3--0--0--0--0--|


     PM PM PM PM             PM     PM PM     PM    PM     PM                
  E  S  S  S  S  E  E  E     E  S S E  E  S S E     E  S S E  S S S S S S    
E|--------------------------|----------------------|-------------------------| |
B|--------------------------|----------------------|-------------------------| |
G|--------------------------|----------------------|------------------------*| |
D|--3--0--0--0--0--5--5--5--|--0--x-x-0--0--x-x-0--|--0--x-x-0--------------*| |
A|--3--0--0--0--0--5--5--5--|--0--x-x-0--0--x-x-0--|--0--x-x-0---------------| |
E|--3--0--0--0--0--5--5--5--|--0--x-x-0--0--x-x-0--|--0--x-x-0--0-0-0-0-0-0--| |


  Q    E  Q.         Q    E  Q.         Q    E  Q.       
E|------------------|------------------|------------------|
B|------------------|------------------|------------------|
G|-------7--6~------|--3----6--7~------|-------7--6~------|
D|------------------|------------------|------------------|
A|------------------|------------------|------------------|
E|--0---------------|------------------|--0---------------|


             PM PM PM PM                                   PM PM PM  
  Q    E  E  S  S  S  S     Q    E  Q.         Q    E  E   S  S  E   
E|-------------------------|------------------|-----------------------|
B|-------------------------|-------6--5~------|--2----5--6~-----------|
G|--3----6--7--------------|------------------|-----------------------|
D|-------------0--0--0--0--|------------------|--------------0--0--0--|
A|-------------0--0--0--0--|------------------|--------------0--0--0--|
E|-------------0--0--0--0--|--0---------------|--------------0--0--0--|


  Q    E  Q.         S S S S S S S S S S S S    S  S S S S S S  S S S S S  
E|------------------|--------------------------|----------------------------|
B|-------6--5~------|--------------------------|----------------------------|
G|------------------|--------------------------|----------------------------|
D|------------------|--------------------------|----------------------------|
A|------------------|--5-5-5-5-5-5-5-5-5-5-5-5-|---------5------------5-----|
E|--0---------------|--5-5-5-5-5-5-5-5-5-5-5-5-|--3p-0-0---7-0-3p-0-0---7-0-|


  S  S S S S S E.    E.       S  S S S S S S  S S S S S  
E|---------------------------|----------------------------|
B|---------------------------|----------------------------|
G|---------------------------|----------------------------|
D|---------------------------|----------------------------|
A|---------5-----2br---2br---|---------5------------5-----|
E|--3p-0-0---7-0-------------|--3p-0-0---7-0-3p-0-0---7-0-|


  S  S S S S S E.    E.       S  S S S S S S  S S S S S  
E|---------------------------|----------------------------|
B|---------------------------|----------------------------|
G|---------------------------|----------------------------|
D|---------------------------|----------------------------|
A|---------5-----2br---2br---|---------5------------5-----|
E|--3p-0-0---7-0-------------|--3p-0-0---7-0-3p-0-0---7-0-|


                                 PM PM       PM PM     
  S  S S S S S E.    E.       E  S  S  E  E  S  S  E   
E|---------------------------|--------------------------|
B|---------------------------|--------------------------|
G|---------------------------|--------------------------|
D|---------------------------|--0--------0--0--------0--|
A|---------5-----2br---2br---|--0--0--0--0--0--0--0--0--|
E|--3p-0-0---7-0-------------|--0--0--0--0--0--0--0--0--|


     PM PM       PM PM       PM PM PM PM PM PM PM PM PM PM  
  E  S  S  E  E  S  S  E     E  S  S  S  S  E  S  S  S  S   
E|--------------------------|--------------------------------|
B|--------------------------|--------------------------------|
G|--------------------------|--------------------------------|
D|--0--------0--0--------0--|--------------------------------|
A|--0--0--0--0--0--0--0--0--|--3--0--0--0--0--3--0--0--0--0--|
E|--0--0--0--0--0--0--0--0--|--3--0--0--0--0--3--0--0--0--0--|


  PM PM PM PM PM PM PM PM    PM PM PM PM PM PM PM PM PM PM  
  E  S  S  S  S  E  E  E     E  S  S  S  S  E  S  S  S  S   
E|--------------------------|--------------------------------|
B|--------------------------|--------------------------------|
G|--------------------------|--------------------------------|
D|--------------------------|--------------------------------|
A|--3--0--0--0--0--5--5--5--|--3--0--0--0--0--3--0--0--0--0--|
E|--3--0--0--0--0--5--5--5--|--3--0--0--0--0--3--0--0--0--0--|


  PM PM PM PM PM PM PM PM PM    PM PM PM PM PM PM PM PM PM PM  
  E  S  S  S  S  E  S  E  S     E  S  S  S  S  E  S  S  S  S   
E|-----------------------------|--------------------------------|
B|-----------------------------|--------------------------------|
G|-----------------------------|--------------------------------|
D|-----------------------------|--------------------------------|
A|--3--0--0--0--0-----0-----0--|--3--0--0--0--0--3--0--0--0--0--|
E|--3--0--0--0--0--5-----5-----|--3--0--0--0--0--3--0--0--0--0--|


  PM PM PM PM PM PM PM PM                                                
  E  S  S  S  S  E  E  E     E  S S E  E  S S E     E  S S E  E  S S E   
E|--------------------------|----------------------|----------------------|
B|--------------------------|----------------------|----------------------|
G|--------------------------|----------------------|----------------------|
D|--------------------------|--x--x-x-x--x--x-x-x--|--x--x-x-x--x--x-x-x--|
A|--3--0--0--0--0--5--5--5--|--x--x-x-x--x--x-x-x--|--x--x-x-x--x--x-x-x--|
E|--3--0--0--0--0--5--5--5--|--x--x-x-x--x--x-x-x--|--x--x-x-x--x--x-x-x--|


     PM PM PM PM    PM PM PM PM       PM PM PM PM           
  E  S  S  S  S  E  S  S  S  S     E  S  S  S  S  E  E  E   
E|--------------------------------|--------------------------|
B|--------------------------------|--------------------------|
G|--------------------------------|--------------------------|
D|--------------------------------|--------------------------|
A|--3--0--0--0--0--3--0--0--0--0--|--3--0--0--0--0--5--5--5--|
E|--3--0--0--0--0--3--0--0--0--0--|--3--0--0--0--0--5--5--5--|


     PM PM PM PM    PM PM PM PM       PM PM PM PM              
  E  S  S  S  S  E  S  S  S  S     E  S  S  S  S  E.    E.     
E|--------------------------------|-----------------------------|
B|--------------------------------|-----------------------------|
G|--------------------------------|-----------------------------|
D|--------------------------------|-----------------------------|
A|--3--0--0--0--0--3--0--0--0--0--|--3--0--0--0--0--2br---2br---|
E|--3--0--0--0--0--3--0--0--0--0--|--3--0--0--0--0--------------|


     PM PM PM PM    PM PM PM PM       PM PM PM PM           
  E  S  S  S  S  E  S  S  S  S     E  S  S  S  S  E  E  E   
E|--------------------------------|--------------------------|
B|--------------------------------|--------------------------|
G|--------------------------------|--------------------------|
D|--------------------------------|--------------------------|
A|--3--0--0--0--0--3--0--0--0--0--|--3--0--0--0--0--5--5--5--|
E|--3--0--0--0--0--3--0--0--0--0--|--3--0--0--0--0--5--5--5--|


  PM PM PM PM PM PM PM PM    PM PM PM                                 
  E  S  S  E  E  S  S  E     E  S  S  E  E  E  E     Q    E  Q.       
E|--------------------------|-----------------------|------------------|
B|--------------------------|-----------------------|------------------|
G|--------------------------|-----------------------|-------7--6~------|
D|--------------------------|--------------0--0--0--|------------------|
A|--0--0--0--0--0--0--0--0--|--0--0--0--0--0--0--0--|------------------|
E|--0--0--0--0--0--0--0--0--|--0--0--0--0--0--0--0--|--0---------------|


                                                   PM PM PM PM  
  Q    E  Q.         Q    E  Q.         Q    E  E  S  S  S  S   
E|------------------|------------------|-------------------------|
B|------------------|------------------|-------------------------|
G|--3----6--7~------|-------7--6~------|--3----6--7--------------|
D|------------------|------------------|-------------0--0--0--0--|
A|------------------|------------------|-------------0--0--0--0--|
E|------------------|--0---------------|-------------0--0--0--0--|


                                 PM PM PM                     
  Q    E  Q.         Q    E  E   S  S  E     Q    E  Q.       
E|------------------|-----------------------|------------------|
B|-------6--5~------|--2----5--6~-----------|-------6--5~------|
G|------------------|-----------------------|------------------|
D|------------------|--------------0--0--0--|------------------|
A|------------------|--------------0--0--0--|------------------|
E|--0---------------|--------------0--0--0--|--0---------------|


  S S S S S S S S S S S S    S  S S S S S S  S S S S S  
E|--------------------------|----------------------------|
B|--------------------------|----------------------------|
G|--------------------------|----------------------------|
D|--------------------------|----------------------------|
A|--5-5-5-5-5-5-5-5-5-5-5-5-|---------5------------5-----|
E|--5-5-5-5-5-5-5-5-5-5-5-5-|--3p-0-0---7-0-3p-0-0---7-0-|


  S  S S S S S E.    E.       S  S S S S S S  S S S S S  
E|---------------------------|----------------------------|
B|---------------------------|----------------------------|
G|---------------------------|----------------------------|
D|---------------------------|----------------------------|
A|---------5-----2br---2br---|---------5------------5-----|
E|--3p-0-0---7-0-------------|--3p-0-0---7-0-3p-0-0---7-0-|


  S  S S S S S E.    E.       S  S S S S S S  S S S S S  
E|---------------------------|----------------------------|
B|---------------------------|----------------------------|
G|---------------------------|----------------------------|
D|---------------------------|----------------------------|
A|---------5-----2br---2br---|---------5------------5-----|
E|--3p-0-0---7-0-------------|--3p-0-0---7-0-3p-0-0---7-0-|


                              PM PM PM PM PM PM PM PM  
  S  S S S S S E.    E.       E  S  S  E  E  S  S  E   
E|---------------------------|--------------------------|
B|---------------------------|--------------------------|
G|---------------------------|--------------------------|
D|---------------------------|--0--0--0--0--0--0--0--0--|
A|---------5-----2br---2br---|--0--0--0--0--0--0--0--0--|
E|--3p-0-0---7-0-------------|--0--0--0--0--0--0--0--0--|


  PM PM PM PM PM PM PM PM PM PM                                       
  E  S  S  E  S  S  S  S  S  S        E   S  S  S  S  E   S  S  S  S  
E|--------------------------------| |-----------------------------------|
B|--------------------------------| |-----------------------------------|
G|--------------------------------| |*--10--10-10-10-10-10--10-10-10-10-|
D|--0--0--0--0--0--0--0--0--0--0--| |*--10--10-10-10-10--8---8--8--8--8-|
A|--0--0--0--0--0--0--0--0--0--0--| |----8---8--8--8--8--8---8--8--8--8-|
E|--0--0--0--0--0--0--0--0--0--0--| |----8---8--8--8--8--8---8--8--8--8-|


  E  S S S S E  S S S S     E   S  S  S  S  E   S  S  S  S  
E|------------------------|----------------------------------|
B|------------------------|----------------------------------|
G|------------------------|--10--10-10-10-10-10--10-10-10-10-|
D|--0--0-0-0-0-0--0-0-0-0-|--10--10-10-10-10--8---8--8--8--8-|
A|--0--0-0-0-0-0--0-0-0-0-|---8---8--8--8--8--8---8--8--8--8-|
E|--0--0-0-0-0-0--0-0-0-0-|---8---8--8--8--8--8---8--8--8--8-|


  E  S S S S E  S S S S     E   S  S  S  S  E   S  S  S  S  
E|------------------------|----------------------------------|
B|------------------------|----------------------------------|
G|------------------------|--10--10-10-10-10-10--10-10-10-10-|
D|--0--0-0-0-0-0--0-0-0-0-|--10--10-10-10-10--8---8--8--8--8-|
A|--0--0-0-0-0-0--0-0-0-0-|---8---8--8--8--8--8---8--8--8--8-|
E|--0--0-0-0-0-0--0-0-0-0-|---8---8--8--8--8--8---8--8--8--8-|


  E  S S S S E  S S S S    E  E  E  E  E  E     E  E  E  E  E  E     
E|------------------------|--------------------|---------------------| |
B|------------------------|--------------------|---------------------| |
G|------------------------|--------------------|--------------------*| |
D|--0--0-0-0-0-0--0-0-0-0-|--6--6--6--6--6--6--|--6--6--6--6--6--6--*| |
A|--0--0-0-0-0-0--0-0-0-0-|--6--6--6--6--6--6--|--6--6--6--6--6--6---| |
E|--0--0-0-0-0-0--0-0-0-0-|--6--6--6--6--6--6--|--6--6--6--6--6--6---| |


  PM PM PM PM PM PM PM PM PM PM PM PM PM PM PM PM PM PM  
  E  T  T  T  T  T  T  T  T  E  T  T  T  T  T  T  T  T   
E|--------------------------------------------------------|
B|--------------------------------------------------------|
G|--------------------------------------------------------|
D|--------------------------------------------------------|
A|--0--0--0--0--0--0--0--0--0--0--0--0--0--0--0--0--0--0--|
E|--0--0--0--0--0--0--0--0--0--0--0--0--0--0--0--0--0--0--|


  PM PM PM PM PM PM PM PM PM PM PM   PM   PM  
  E  T  T  T  T  T  T  T  T  S  S  S S  S S   
E|---------------------------------------------|
B|---------------------------------------------|
G|---------------------------------------------|
D|---------------------------------------------|
A|--0--0--0--0--0--0--0--0--0--0--0----0----0--|
E|--0--0--0--0--0--0--0--0--0--0--0----0----0--|


  PM PM   PM   PM PM PM   PM   PM    PM PM   PM   PM PM PM   PM   PM  
  S  S  S S  S S  S  S  S S  S S     S  S  S S  S S  S  S  S S  S S   
E|----------------------------------|----------------------------------|
B|----------------------------------|----------------------------------|
G|----------------------------------|----------------------------------|
D|----------------------------------|----------------------------------|
A|--0--0----0----0--0--0----0----0--|--0--0----0----0--0--0----0----0--|
E|--0--0----0----0--0--0----0----0--|--0--0----0----0--0--0----0----0--|


  PM PM   PM   PM    PM PM PM PM PM PM PM PM PM PM PM   PM   PM  
  S  S  S S  S S     E  T  T  T  T  T  T  T  T  S  S  S S  S S   
E|------------------|---------------------------------------------|
B|------------------|---------------------------------------------|
G|------------------|---------------------------------------------|
D|------------------|---------------------------------------------|
A|--0--0----0----0--|--0--0--0--0--0--0--0--0--0--0--0----0----0--|
E|--0--0----0----0--|--0--0--0--0--0--0--0--0--0--0--0----0----0--|


  PM PM   PM   PM PM PM   PM   PM                                      
  S  S  S S  S S  S  S  S S  S S     S S Q    Q.        H        Q     
E|----------------------------------|------------------|----------------|
B|----------------------------------|------------------|----------------|
G|----------------------------------|------------------|----------------|
D|----------------------------------|------------------|----------------|
A|--0--0----0----0--0--0----0----0--|--0---------------|----------------|
E|--0--0----0----0--0--0----0----0--|--0---------------|----------------|


                                    Clean                                    
                                    PM    PM PM PM PM PM   PMPM PM PM PM PM  
  H        Q       H        Q       S     S  S  S  S  S    S S  S  S  S  S   
E|----------------|----------------|------------------------------------------|
B|----------------|----------------|------------------------------------------|
G|----------------|----------------|------------------------------------------|
D|----------------|----------------|------------------------------------------|
A|----------------|----------------|--3-----5--5--3--5--3--3| g8-8--8--7--8--7--|
E|----------------|----------------|------------------------------------------|


  PM PM PM PM PM PM PM PM PM PM PM PM    PM PM PM PM PM PM PM PM PM PM PM PM  
  S  S  S  S  S  S  S  S  S  S  S  S     S  S  S  S  S  S  S  S  S  S  S  S   
E|--------------------------------------|--------------------------------------|
B|--------------------------------------|--------------------------------------|
G|--------------------------------------|--------------------------------------|
D|--------------------------------------|--------------------------------------|
A|--5--7--7--5--7--5--3--5--5--3--5--3--|--2--2--2--2--2--2--2--2--2--2--2--2--|
E|--------------------------------------|--------------------------------------|


  PM PM PM PM PM PM PM PM PM PM PM PM    PM PM PM PM PM PM PM PM PM PM PM PM  
  S  S  S  S  S  S  S  S  S  S  S  S     S  S  S  S  S  S  S  S  S  S  S  S   
E|--------------------------------------|--------------------------------------|
B|--------------------------------------|--------------------------------------|
G|--------------------------------------|--------------------------------------|
D|--------------------------------------|--------------------------------------|
A|--2--3--2--0--2--0--2--3--2--0--2--3--|--5--5--5--5--5--3--5--5--5--3--5--3--|
E|--------------------------------------|--------------------------------------|


                                                            Gain up  
    PMPM PM PM PM PM PM PM PM PM PM PM    PM PM PM PM PM PM          
    S S  S  S  S  S  S  S  S  S  S  S     S  S  S  S  S  S  Q.       
E|E|---------------------------------------|----------------------------|
B|E|---------------------------------------|----------------------------|
G|E|---------------------------------------|----------------------------|
D|E|---------------------------------------|----------------------------|
--3g8-8--8--7--8--7--5--7--7--5--7--5--|--2--2--2--2--2--2--2-------|
E|---------------------------------------|----------------------------|


  PM PM PM PM PM PM PM PM                                                   
  E  S  S  E  E  S  S  E     S E  E  S S E  E  S    S E  E  S S  S S S S S  
E|--------------------------|----------------------|-------------------------|
B|--------------------------|----------------------|-------------------------|
G|--------------------------|--7-7--7--7-7-7--7--7-|--7-7--7--7-7S-9-9-9-9-x-|
D|--------------------------|--x-x--x--x-x-x--x--x-|--x-x--x--x-x--x-x-x-x-x-|
A|--0--0--0--0--0--0--0--0--|--5-5--5--5-5-5--5--5-|--5-5--5--5-5S-7-7-7-7-x-|
E|--0--0--0--0--0--0--0--0--|----------------------|-------------------------|


  S E  E  S S E  E  S    S E  E  S S E  E  S    S E  E  S S E  E  S  
E|----------------------|----------------------|----------------------|
B|----------------------|----------------------|----------------------|
G|--5-5--5--5-5-5--5--5-|--5-5--5--5-5-5--5--5-|--7-7--7--7-7-7--7--7-|
D|--x-x--x--x-x-x--x--x-|--x-x--x--x-x-x--x--x-|--x-x--x--x-x-x--x--x-|
A|--3-3--3--3-3-3--3--3-|--3-3--3--3-3-3--3--3-|--5-5--5--5-5-5--5--5-|
E|----------------------|----------------------|----------------------|


  S E  E  S S  S S S S S    S E  E  S S E  E  S    S E  E  S S E  E  S  
E|-------------------------|----------------------|----------------------|
B|-------------------------|----------------------|----------------------|
G|--7-7--7--7-7S-9-9-9-9-x-|--5-5--5--5-5-5--5--5-|--4-4--4--4-2-2--2--2-|
D|--x-x--x--x-x--x-x-x-x-x-|--x-x--x--x-x-x--x--x-|--x-x--x--x-x-x--x--x-|
A|--5-5--5--5-5S-7-7-7-7-x-|--3-3--3--3-3-3--3--3-|--2-2--2--2-0-0--0--0-|
E|-------------------------|----------------------|----------------------|


  S S S S S S S  S E  E     S S S S S S S  S E  E     S S S S S S S  S E  E   
E|--8-8-8-8-8-8-8S-5-5--5--|--8-8-8-8-8-8-8S-5-5--5--|--8-8-8-8-8-8-8S-3-3--3--|
B|-------------------------|-------------------------|-------------------------|
G|-------------------------|-------------------------|-------------------------|
D|-------------------------|-------------------------|-------------------------|
A|-------------------------|-------------------------|-------------------------|
E|-------------------------|-------------------------|-------------------------|


  S S S S S S S  S E  E     S S S S S S S  S E  E     S S S S S S S  S E  E   
E|--8-8-8-8-8-8-8S-3-3--3--|--8-8-8-8-8-8-8S-5-5--5--|--8-8-8-8-8-8-8S-5-5--5--|
B|-------------------------|-------------------------|-------------------------|
G|-------------------------|-------------------------|-------------------------|
D|-------------------------|-------------------------|-------------------------|
A|-------------------------|-------------------------|-------------------------|
E|-------------------------|-------------------------|-------------------------|


  S S S S S S S  S E  E   
E|--8-8-8-8-8-8-8S-3-3--3--|
B|-------------------------|
G|-------------------------|
D|-------------------------|
A|-------------------------|
E|-------------------------|


   T   T   T   T  T   T   T   T  T   T   T   T  T   T   T   T  T   T   T   T  T 
E|--12h-13p-12p-10-12h-13p-12p-10-12h-13p-12p-10-12h-13p-12p-10-12h-13p-12p-10-12h|
B|--------------------------------------------------------------------------------|
G|--------------------------------------------------------------------------------|
D|--------------------------------------------------------------------------------|
A|--------------------------------------------------------------------------------|
E|--------------------------------------------------------------------------------|


     PM PM PM PM    PM PM PM PM       PM PM PM PM           
  E  S  S  S  S  E  S  S  S  S     E  S  S  S  S  E  E  E   
E|--------------------------------|--------------------------|
B|--------------------------------|--------------------------|
G|--------------------------------|--------------------------|
D|--3--0--0--0--0--3--0--0--0--0--|--3--0--0--0--0--5--5--5--|
A|--3--0--0--0--0--3--0--0--0--0--|--3--0--0--0--0--5--5--5--|
E|--3--0--0--0--0--3--0--0--0--0--|--3--0--0--0--0--5--5--5--|


     PM PM PM PM    PM PM PM PM       PM PM PM PM              
  E  S  S  S  S  E  S  S  S  S     E  S  S  S  S  E   S E   S  
E|--------------------------------|-----------------------------|
B|--------------------------------|-----------------------------|
G|--------------------------------|-----------------------------|
D|--3--0--0--0--0--3--0--0--0--0--|--3--0--0--0--0--------------|
A|--3--0--0--0--0--3--0--0--0--0--|--3--0--0--0--0------0-----0-|
E|--3--0--0--0--0--3--0--0--0--0--|--3--0--0--0--0--5b----5b----|


     PM PM PM PM    PM PM PM PM       PM PM PM PM           
  E  S  S  S  S  E  S  S  S  S     E  S  S  S  S  E  E  E   
E|--------------------------------|--------------------------|
B|--------------------------------|--------------------------|
G|--------------------------------|--------------------------|
D|--3--0--0--0--0--3--0--0--0--0--|--3--0--0--0--0--5--5--5--|
A|--3--0--0--0--0--3--0--0--0--0--|--3--0--0--0--0--5--5--5--|
E|--3--0--0--0--0--3--0--0--0--0--|--3--0--0--0--0--5--5--5--|


  PM     PM PM     PM    PM     PM              
  E  S S E  E  S S E     E  S S E  S S S S S S  
E|----------------------|------------------------|
B|----------------------|------------------------|
G|----------------------|------------------------|
D|--0--x-x-0--0--x-x-0--|--0--x-x-0--------------|
A|--0--x-x-0--0--x-x-0--|--0--x-x-0--------------|
E|--0--x-x-0--0--x-x-0--|--0--x-x-0--0-0-0-0-0-0-|


     PM PM PM PM    PM PM PM PM       PM PM PM PM           
  E  S  S  S  S  E  S  S  S  S     E  S  S  S  S  E  E  E   
E|--------------------------------|--------------------------|
B|--------------------------------|--------------------------|
G|--------------------------------|--------------------------|
D|--3--0--0--0--0--3--0--0--0--0--|--3--0--0--0--0--5--5--5--|
A|--3--0--0--0--0--3--0--0--0--0--|--3--0--0--0--0--5--5--5--|
E|--3--0--0--0--0--3--0--0--0--0--|--3--0--0--0--0--5--5--5--|


     PM PM PM PM    PM PM PM PM       PM PM PM PM         
  E  S  S  S  S  E  S  S  S  S     E  S  S  S  S  Q.      
E|--------------------------------|------------------------|
B|--------------------------------|------------------------|
G|--------------------------------|------------------------|
D|--3--0--0--0--0--3--0--0--0--0--|--3--0--0--0--0---------|
A|--3--0--0--0--0--3--0--0--0--0--|--3--0--0--0--0---------|
E|--3--0--0--0--0--3--0--0--0--0--|--3--0--0--0--0---------|


     PM PM PM PM    PM PM PM PM       PM PM PM PM           
  E  S  S  S  S  E  S  S  S  S     E  S  S  S  S  E  E  E   
E|--------------------------------|--------------------------|
B|--------------------------------|--------------------------|
G|--------------------------------|--------------------------|
D|--3--0--0--0--0--3--0--0--0--0--|--3--0--0--0--0--5--5--5--|
A|--3--0--0--0--0--3--0--0--0--0--|--3--0--0--0--0--5--5--5--|
E|--3--0--0--0--0--3--0--0--0--0--|--3--0--0--0--0--5--5--5--|


  PM PM PM PM PM PM PM PM    PM PM PM              
  E  S  S  E  E  S  S  E     E  S  S  E  E  E  E   
E|--------------------------|-----------------------|
B|--------------------------|-----------------------|
G|--------------------------|-----------------------|
D|--------------------------|--------------0--0--0--|
A|--0--0--0--0--0--0--0--0--|--0--0--0--0--0--0--0--|
E|--0--0--0--0--0--0--0--0--|--0--0--0--0--0--0--0--|


Guitar 2



     H        Q       H        Q       H        Q       H        Q     
D||----------------|----------------|----------------|----------------|
A||----------------|----------------|----------------|----------------|
F||----------------|----------------|----------------|----------------|
C||----------------|----------------|----------------|----------------|
G||----------------|----------------|----------------|----------------|
C||----------------|----------------|----------------|----------------|


  Clean                                                                  
  Q     E  Q.        Q    E  Q.        Q    E  Q.        Q    E  Q.      
E|------------------|-----------------|-----------------|-----------------|
B|------------------|-----------------|-----------------|-----------------|
G|------------------|-----------------|-----------------|-----------------|
D|------------------|-----------------|-----------------|-----------------|
A|--------8--7------|--4----7--8------|-------8--7------|--4----7--8------|
E|--0---------------|-----------------|--0--------------|-----------------|


  Dist. Low Gain                                   
  PM             PM PM PM PM PM PM PM PM PM PM PM  
  S              S  S  S  S  S  S  S  S  S  S  S   
E|--------------------------------------------------|
B|--------------------------------------------------|
G|--------------------------------------------------|
D|-----------------0--------0--------0--------0-----|
A|--------------------0--------0--------0--------0--|
E|--0--------------------0--------0--------0--------|


  PM PM PM PM PM PM PM PM PM PM PM PM    PM PM PM PM PM PM PM PM PM PM PM PM  
  S  S  S  S  S  S  S  S  S  S  S  S     S  S  S  S  S  S  S  S  S  S  S  S   
E|--------------------------------------|--------------------------------------|
B|--------------------------------------|--------------------------------------|
G|--------------------------------------|--------------------------------------|
D|-----0--------0--------0--------0-----|-----0--------0--------0--------0-----|
A|--------0--------0--------0--------0--|--------0--------0--------0--------0--|
E|--0--------0--------0--------0--------|--0--------0--------0--------0--------|


  PM PM PM PM PM PM                PM PM PM PM PM PM PM PM PM PM PM PM  
  S  S  S  S  S  S  E   S E   S    S  S  S  S  S  S  S  S  S  S  S  S   
E|--------------------------------|--------------------------------------|
B|--------------------------------|--------------------------------------|
G|--------------------------------|--------------------------------------|
D|-----0--------0---------0-----0-|-----0--------0--------0--------0-----|
A|--------0--------0--------------|--------0--------0--------0--------0--|
E|--0--------0--------5b----5b----|--0--------0--------0--------0--------|


                                         Gain up       
  PM PM PM PM PM PM PM PM PM PM PM PM    PM            
  S  S  S  S  S  S  S  S  S  S  S  S     H.            
E|--------------------------------------|---------------|
B|--------------------------------------|---------------|
G|--------------------------------------|---------------|
D|-----0--------0--------0--------0-----|---------------|
A|--------0--------0--------0--------0--|--0------------|
E|--0--------0--------0--------0--------|--0------------|


  Tight-ass Palm mute                                                           
                                                    PM PM PM PM    PM PM PM PM  
  S                   S S S S S S S S S S S      E  S  S  S  S  E  S  S  S  S   
E|--------------------------------------------| |---------------------------------|
B|--------------------------------------------| |---------------------------------|
G|--------------------------------------------| |*--------------------------------|
D|--------------------------------------------| |*--3--0--0--0--0--3--0--0--0--0--|
A|--x-------------------x---x---x-x-x---x---x-| |---3--0--0--0--0--3--0--0--0--0--|
E|--x-------------------x---x---x-x-x---x---x-| |---3--0--0--0--0--3--0--0--0--0--|


     PM PM PM PM                PM PM PM PM    PM PM PM PM  
  E  S  S  S  S  E  E  E     E  S  S  S  S  E  S  S  S  S   
E|--------------------------|--------------------------------|
B|--------------------------|--------------------------------|
G|--------------------------|--------------------------------|
D|--3--0--0--0--0--5--5--5--|--3--0--0--0--0--3--0--0--0--0--|
A|--3--0--0--0--0--5--5--5--|--3--0--0--0--0--3--0--0--0--0--|
E|--3--0--0--0--0--5--5--5--|--3--0--0--0--0--3--0--0--0--0--|


     PM PM PM PM                   PM PM PM PM    PM PM PM PM  
  E  S  S  S  S  E   S E   S    E  S  S  S  S  E  S  S  S  S   
E|-----------------------------|--------------------------------|
B|-----------------------------|--------------------------------|
G|-----------------------------|--------------------------------|
D|--3--0--0--0--0--------------|--3--0--0--0--0--3--0--0--0--0--|
A|--3--0--0--0--0------0-----0-|--3--0--0--0--0--3--0--0--0--0--|
E|--3--0--0--0--0--5b----5b----|--3--0--0--0--0--3--0--0--0--0--|


     PM PM PM PM             PM     PM PM     PM    PM     PM                
  E  S  S  S  S  E  E  E     E  S S E  E  S S E     E  S S E  S S S S S S    
E|--------------------------|----------------------|-------------------------| |
B|--------------------------|----------------------|-------------------------| |
G|--------------------------|----------------------|------------------------*| |
D|--3--0--0--0--0--5--5--5--|--0--x-x-0--0--x-x-0--|--0--x-x-0--------------*| |
A|--3--0--0--0--0--5--5--5--|--0--x-x-0--0--x-x-0--|--0--x-x-0--0-0-0-0-0-0--| |
E|--3--0--0--0--0--5--5--5--|--0--x-x-0--0--x-x-0--|--0--x-x-0--0-0-0-0-0-0--| |


  Q    E  Q.         Q    E  Q.         Q    E  Q.       
E|------------------|------------------|------------------|
B|------------------|------------------|------------------|
G|------------------|------------------|------------------|
D|------------------|------------------|------------------|
A|--0----5--4~------|--1----4--5~------|-------5--4~------|
E|--0---------------|------------------|--0---------------|


             PM PM PM PM                                  PM PM PM  
  Q    E  E  S  S  S  S     Q    E  Q.         Q    E  E  S  S  E   
E|-------------------------|------------------|----------------------|
B|-------------------------|------------------|----------------------|
G|-------------------------|------------------|----------------------|
D|-------------0--0--0--0--|------------------|-------------0--0--0--|
A|--1----4--5--0--0--0--0--|--0----5--4~------|--1----4--5--0--0--0--|
E|-------------0--0--0--0--|--0---------------|-------------0--0--0--|


                                                   PM PM PM PM    PM PM PM PM  
  Q    E  Q.         S S S S S S S S S S S S    E  S  S  S  S  E  S  S  S  S   
E|------------------|--------------------------|--------------------------------|
B|------------------|--------------------------|--------------------------------|
G|------------------|--------------------------|--------------------------------|
D|------------------|--------------------------|--3--0--0--0--0--3--0--0--0--0--|
A|--0----5--4~------|--5-5-5-5-5-5-5-5-5-5-5-5-|--3--0--0--0--0--3--0--0--0--0--|
E|--0---------------|--5-5-5-5-5-5-5-5-5-5-5-5-|--3--0--0--0--0--3--0--0--0--0--|


     PM PM PM PM                PM PM PM PM    PM PM PM PM  
  E  S  S  S  S  E  E  E     E  S  S  S  S  E  S  S  S  S   
E|--------------------------|--------------------------------|
B|--------------------------|--------------------------------|
G|--------------------------|--------------------------------|
D|--3--0--0--0--0--5--5--5--|--3--0--0--0--0--3--0--0--0--0--|
A|--3--0--0--0--0--5--5--5--|--3--0--0--0--0--3--0--0--0--0--|
E|--3--0--0--0--0--5--5--5--|--3--0--0--0--0--3--0--0--0--0--|


     PM PM PM PM                   PM PM PM PM    PM PM PM PM  
  E  S  S  S  S  E.    E.       E  S  S  S  S  E  S  S  S  S   
E|-----------------------------|--------------------------------|
B|-----------------------------|--------------------------------|
G|-----------------------------|--------------------------------|
D|--3--0--0--0--0--------------|--3--0--0--0--0--3--0--0--0--0--|
A|--3--0--0--0--0--2br---2br---|--3--0--0--0--0--3--0--0--0--0--|
E|--3--0--0--0--0--------------|--3--0--0--0--0--3--0--0--0--0--|


     PM PM PM PM                PM PM       PM PM     
  E  S  S  S  S  E  E  E     E  S  S  E  E  S  S  E   
E|--------------------------|--------------------------|
B|--------------------------|--------------------------|
G|--------------------------|--------------------------|
D|--3--0--0--0--0--5--5--5--|--0--------0--0--------0--|
A|--3--0--0--0--0--5--5--5--|--0--0--0--0--0--0--0--0--|
E|--3--0--0--0--0--5--5--5--|--0--0--0--0--0--0--0--0--|


     PM PM       PM PM       PM PM PM PM PM PM PM PM PM PM  
  E  S  S  E  E  S  S  E     E  S  S  S  S  E  S  S  S  S   
E|--------------------------|--------------------------------|
B|--------------------------|--------------------------------|
G|--------------------------|--------------------------------|
D|--0--------0--0--------0--|--------------------------------|
A|--0--0--0--0--0--0--0--0--|--3--0--0--0--0--3--0--0--0--0--|
E|--0--0--0--0--0--0--0--0--|--3--0--0--0--0--3--0--0--0--0--|


  PM PM PM PM PM PM PM PM    PM PM PM PM PM PM PM PM PM PM  
  E  S  S  S  S  E  E  E     E  S  S  S  S  E  S  S  S  S   
E|--------------------------|--------------------------------|
B|--------------------------|--------------------------------|
G|--------------------------|--------------------------------|
D|--------------------------|--------------------------------|
A|--3--0--0--0--0--5--5--5--|--3--0--0--0--0--3--0--0--0--0--|
E|--3--0--0--0--0--5--5--5--|--3--0--0--0--0--3--0--0--0--0--|


  PM PM PM PM PM PM PM PM PM    PM PM PM PM PM PM PM PM PM PM  
  E  S  S  S  S  E  S  E  S     E  S  S  S  S  E  S  S  S  S   
E|-----------------------------|--------------------------------|
B|-----------------------------|--------------------------------|
G|-----------------------------|--------------------------------|
D|-----------------------------|--------------------------------|
A|--3--0--0--0--0-----0-----0--|--3--0--0--0--0--3--0--0--0--0--|
E|--3--0--0--0--0--5-----5-----|--3--0--0--0--0--3--0--0--0--0--|


  PM PM PM PM PM PM PM PM                                                
  E  S  S  S  S  E  E  E     E  S S E  E  S S E     E  S S E  E  S S E   
E|--------------------------|----------------------|----------------------|
B|--------------------------|----------------------|----------------------|
G|--------------------------|----------------------|----------------------|
D|--------------------------|--x--x-x-x--x--x-x-x--|--x--x-x-x--x--x-x-x--|
A|--3--0--0--0--0--5--5--5--|--x--x-x-x--x--x-x-x--|--x--x-x-x--x--x-x-x--|
E|--3--0--0--0--0--5--5--5--|--x--x-x-x--x--x-x-x--|--x--x-x-x--x--x-x-x--|


     PM PM PM PM    PM PM PM PM       PM PM PM PM           
  E  S  S  S  S  E  S  S  S  S     E  S  S  S  S  E  E  E   
E|--------------------------------|--------------------------|
B|--------------------------------|--------------------------|
G|--------------------------------|--------------------------|
D|--------------------------------|--------------------------|
A|--3--0--0--0--0--3--0--0--0--0--|--3--0--0--0--0--5--5--5--|
E|--3--0--0--0--0--3--0--0--0--0--|--3--0--0--0--0--5--5--5--|


     PM PM PM PM    PM PM PM PM       PM PM PM PM              
  E  S  S  S  S  E  S  S  S  S     E  S  S  S  S  E.    E.     
E|--------------------------------|-----------------------------|
B|--------------------------------|-----------------------------|
G|--------------------------------|-----------------------------|
D|--------------------------------|-----------------------------|
A|--3--0--0--0--0--3--0--0--0--0--|--3--0--0--0--0--2br---2br---|
E|--3--0--0--0--0--3--0--0--0--0--|--3--0--0--0--0--------------|


     PM PM PM PM    PM PM PM PM       PM PM PM PM           
  E  S  S  S  S  E  S  S  S  S     E  S  S  S  S  E  E  E   
E|--------------------------------|--------------------------|
B|--------------------------------|--------------------------|
G|--------------------------------|--------------------------|
D|--------------------------------|--------------------------|
A|--3--0--0--0--0--3--0--0--0--0--|--3--0--0--0--0--5--5--5--|
E|--3--0--0--0--0--3--0--0--0--0--|--3--0--0--0--0--5--5--5--|


  PM PM PM PM PM PM PM PM    PM PM PM                                 
  E  S  S  E  E  S  S  E     E  S  S  E  E  E  E     Q    E  Q.       
E|--------------------------|-----------------------|------------------|
B|--------------------------|-----------------------|------------------|
G|--------------------------|-----------------------|------------------|
D|--------------------------|--------------0--0--0--|------------------|
A|--0--0--0--0--0--0--0--0--|--0--0--0--0--0--0--0--|--0----5--4~------|
E|--0--0--0--0--0--0--0--0--|--0--0--0--0--0--0--0--|--0---------------|


                                                   PM PM PM PM  
  Q    E  Q.         Q    E  Q.         Q    E  E  S  S  S  S   
E|------------------|------------------|-------------------------|
B|------------------|------------------|-------------------------|
G|------------------|------------------|-------------------------|
D|------------------|------------------|-------------0--0--0--0--|
A|--1----4--5~------|-------5--4~------|--1----4--5--0--0--0--0--|
E|------------------|--0---------------|-------------0--0--0--0--|


                                PM PM PM                     
  Q    E  Q.         Q    E  E  S  S  E     Q    E  Q.       
E|------------------|----------------------|------------------|
B|------------------|----------------------|------------------|
G|------------------|----------------------|------------------|
D|------------------|-------------0--0--0--|------------------|
A|--0----5--4~------|--1----4--5--0--0--0--|--0----5--4~------|
E|--0---------------|-------------0--0--0--|--0---------------|


                                PM PM PM PM    PM PM PM PM  
  S S S S S S S S S S S S    E  S  S  S  S  E  S  S  S  S   
E|--------------------------|--------------------------------|
B|--------------------------|--------------------------------|
G|--------------------------|--------------------------------|
D|--------------------------|--3--0--0--0--0--3--0--0--0--0--|
A|--5-5-5-5-5-5-5-5-5-5-5-5-|--3--0--0--0--0--3--0--0--0--0--|
E|--5-5-5-5-5-5-5-5-5-5-5-5-|--3--0--0--0--0--3--0--0--0--0--|


     PM PM PM PM                PM PM PM PM    PM PM PM PM  
  E  S  S  S  S  E  E  E     E  S  S  S  S  E  S  S  S  S   
E|--------------------------|--------------------------------|
B|--------------------------|--------------------------------|
G|--------------------------|--------------------------------|
D|--3--0--0--0--0--5--5--5--|--3--0--0--0--0--3--0--0--0--0--|
A|--3--0--0--0--0--5--5--5--|--3--0--0--0--0--3--0--0--0--0--|
E|--3--0--0--0--0--5--5--5--|--3--0--0--0--0--3--0--0--0--0--|


     PM PM PM PM                   PM PM PM PM    PM PM PM PM  
  E  S  S  S  S  E.    E.       E  S  S  S  S  E  S  S  S  S   
E|-----------------------------|--------------------------------|
B|-----------------------------|--------------------------------|
G|-----------------------------|--------------------------------|
D|--3--0--0--0--0--------------|--3--0--0--0--0--3--0--0--0--0--|
A|--3--0--0--0--0--2br---2br---|--3--0--0--0--0--3--0--0--0--0--|
E|--3--0--0--0--0--------------|--3--0--0--0--0--3--0--0--0--0--|


     PM PM PM PM             PM PM PM PM PM PM PM PM  
  E  S  S  S  S  E  E  E     E  S  S  E  E  S  S  E   
E|--------------------------|--------------------------|
B|--------------------------|--------------------------|
G|--------------------------|--------------------------|
D|--3--0--0--0--0--5--5--5--|--0--0--0--0--0--0--0--0--|
A|--3--0--0--0--0--5--5--5--|--0--0--0--0--0--0--0--0--|
E|--3--0--0--0--0--5--5--5--|--0--0--0--0--0--0--0--0--|


  PM PM PM PM PM PM PM PM PM PM                             
  E  S  S  E  S  S  S  S  S  S       E  S S S S E  S S S S  
E|--------------------------------| |-------------------------|
B|--------------------------------| |-------------------------|
G|--------------------------------| |*------------------------|
D|--0--0--0--0--0--0--0--0--0--0--| |*--8--8-8-8-8-8--8-8-8-8-|
A|--0--0--0--0--0--0--0--0--0--0--| |---8--8-8-8-8-8--8-8-8-8-|
E|--0--0--0--0--0--0--0--0--0--0--| |---8--8-8-8-8-8--8-8-8-8-|


  E  S S S S E  S S S S    E  S S S S E  S S S S    E  S S S S E    S S S S  
E|------------------------|------------------------|--------------------------|
B|------------------------|------------------------|--------------------------|
G|--7--7-7-7-7-7--7-7-7-7-|------------------------|--7--7-7-7-7-7br--7-7-7-7-|
D|--x--x-x-x-x-x--x-x-x-x-|--8--8-8-8-8-8--8-8-8-8-|--x--x-x-x-x-x----x-x-x-x-|
A|--5--5-5-5-5-5--5-5-5-5-|--8--8-8-8-8-8--8-8-8-8-|--5--5-5-5-5-5br--5-5-5-5-|
E|--0--0-0-0-0-0--0-0-0-0-|--8--8-8-8-8-8--8-8-8-8-|--0--0-0-0-0-0----0-0-0-0-|


  E  S S S S E  S S S S    E  S S S S E  S S S S    E  E  E  E  E  E   
E|------------------------|------------------------|--------------------|
B|------------------------|------------------------|--------------------|
G|------------------------|--7--7-7-7-7-7--7-7-7-7-|--------------------|
D|--8--8-8-8-8-8--8-8-8-8-|--x--x-x-x-x-x--x-x-x-x-|--6--6--6--6--6--6--|
A|--8--8-8-8-8-8--8-8-8-8-|--5--5-5-5-5-5--5-5-5-5-|--6--6--6--6--6--6--|
E|--8--8-8-8-8-8--8-8-8-8-|--0--0-0-0-0-0--0-0-0-0-|--6--6--6--6--6--6--|


                            PM PM PM PM PM PM PM PM PM PM PM PM PM PM PM PM PM  
  E  E  E  E  E  E       E  T  T  T  T  T  T  T  T  E  T  T  T  T  T  T  T  T   
E|---------------------| |--------------------------------------------------------|
B|---------------------| |--------------------------------------------------------|
G|--------------------*| |--------------------------------------------------------|
D|--6--6--6--6--6--6--*| |--------------------------------------------------------|
A|--6--6--6--6--6--6---| |-----0--0--0--0--0--0--0--0--0--0--0--0--0--0--0--0--0--|
E|--6--6--6--6--6--6---| |-----0--0--0--0--0--0--0--0--0--0--0--0--0--0--0--0--0--|


  PM PM PM PM PM PM PM PM PM PM PM   PM   PM  
  E  T  T  T  T  T  T  T  T  S  S  S S  S S   
E|---------------------------------------------|
B|---------------------------------------------|
G|---------------------------------------------|
D|---------------------------------------------|
A|--0--0--0--0--0--0--0--0--0--0--0----0----0--|
E|--0--0--0--0--0--0--0--0--0--0--0----0----0--|


  PM PM   PM   PM PM PM   PM   PM    PM PM   PM   PM PM PM   PM   PM  
  S  S  S S  S S  S  S  S S  S S     S  S  S S  S S  S  S  S S  S S   
E|----------------------------------|----------------------------------|
B|----------------------------------|----------------------------------|
G|----------------------------------|----------------------------------|
D|----------------------------------|----------------------------------|
A|--0--0----0----0--0--0----0----0--|--0--0----0----0--0--0----0----0--|
E|--0--0----0----0--0--0----0----0--|--0--0----0----0--0--0----0----0--|


  PM PM   PM   PM    PM PM PM PM PM PM PM PM PM PM PM   PM   PM  
  S  S  S S  S S     E  T  T  T  T  T  T  T  T  S  S  S S  S S   
E|------------------|---------------------------------------------|
B|------------------|---------------------------------------------|
G|------------------|---------------------------------------------|
D|------------------|---------------------------------------------|
A|--0--0----0----0--|--0--0--0--0--0--0--0--0--0--0--0----0----0--|
E|--0--0----0----0--|--0--0--0--0--0--0--0--0--0--0--0----0----0--|


  PM PM   PM   PM PM PM   PM   PM                                      
  S  S  S S  S S  S  S  S S  S S     S S Q    Q.        H        Q     
E|----------------------------------|------------------|----------------|
B|----------------------------------|------------------|----------------|
G|----------------------------------|------------------|----------------|
D|----------------------------------|------------------|----------------|
A|--0--0----0----0--0--0----0----0--|--0---------------|----------------|
E|--0--0----0----0--0--0----0----0--|--0---------------|----------------|


  H        Q       H        Q       H        Q       H        Q     
E|----------------|----------------|----------------|----------------|
B|----------------|----------------|----------------|----------------|
G|----------------|----------------|----------------|----------------|
D|----------------|----------------|----------------|----------------|
A|----------------|----------------|----------------|----------------|
E|----------------|----------------|----------------|----------------|


                                    Clean                                   
                                    PM    PM PM PM PM PM PM PM PM PM PM PM  
  H        Q       H        Q       S     S  S  S  S  S  S  S  S  S  S  S   
E|----------------|----------------|-----------------------------------------|
B|----------------|----------------|-----------------------------------------|
G|----------------|----------------|-----------------------------------------|
D|----------------|----------------|--3-----3--3--3--3--2--3--3--3--2--3--2--|
A|----------------|----------------|-----------------------------------------|
E|----------------|----------------|-----------------------------------------|


                                                            Gain up  
    PMPM PM PM PM PM PM PM PM PM PM PM    PM PM PM PM PM PM          
    S S  S  S  S  S  S  S  S  S  S  S     S  S  S  S  S  S  Q.       
E|---------------------------------------|----------------------------|
E|---------------------------------------|----------------------------|
E|---------------------------------------|----------------------------|
--2g7-7--7--5--7--5--3--5--5--3--5--3--|--2--2--2--2--2--2--2-------|
E|---------------------------------------|----------------------------|
E|---------------------------------------|----------------------------|


  PM PM PM PM PM PM PM PM                                                   
  E  S  S  E  E  S  S  E     S E  E  S S E  E  S    S E  E  S S  S S S S S  
E|--------------------------|----------------------|-------------------------|
B|--------------------------|----------------------|-------------------------|
G|--------------------------|----------------------|------------7S-9-9-9-9-x-|
D|--------------------------|--0-0--0--0-0-0--0--0-|--0-0--0--0-x--x-x-x-x-x-|
A|--0--0--0--0--0--0--0--0--|--0-0--0--0-0-0--0--0-|--0-0--0--0-5S-7-7-7-7-x-|
E|--0--0--0--0--0--0--0--0--|--0-0--0--0-0-0--0--0-|--0-0--0--0--------------|


  S E  E  S S E  E  S    S E  E  S S E  E  S    S E  E  S S E  E  S  
E|----------------------|----------------------|----------------------|
B|----------------------|----------------------|----------------------|
G|--5-5--5--5-5-5--5--5-|--5-5--5--5-5-5--5--5-|----------------------|
D|--x-x--x--x-x-x--x--x-|--x-x--x--x-x-x--x--x-|--0-0--0--0-0-0--0--0-|
A|--3-3--3--3-3-3--3--3-|--3-3--3--3-3-3--3--3-|--0-0--0--0-0-0--0--0-|
E|----------------------|----------------------|--0-0--0--0-0-0--0--0-|


  S E  E  S S  S S S S S    S E  E  S S E  E  S    S E  E  S S E  E  S  
E|-------------------------|----------------------|----------------------|
B|-------------------------|----------------------|----------------------|
G|------------7S-9-9-9-9-x-|--5-5--5--5-5-5--5--5-|--4-4--4--4-2-2--2--2-|
D|--0-0--0--0-x--x-x-x-x-x-|--x-x--x--x-x-x--x--x-|--x-x--x--x-x-x--x--x-|
A|--0-0--0--0-5S-7-7-7-7-x-|--3-3--3--3-3-3--3--3-|--2-2--2--2-0-0--0--0-|
E|--0-0--0--0--------------|----------------------|----------------------|


  S E  E  S S E  E  S    S E  E  S S  S S S S S    S E  E  S S E  E  S  
E|----------------------|-------------------------|----------------------|
B|----------------------|-------------------------|----------------------|
G|--7-7--7--7-7-7--7--7-|--7-7--7--7-7S-9-9-9-9-x-|--5-5--5--5-5-5--5--5-|
D|--x-x--x--x-x-x--x--x-|--x-x--x--x-x--x-x-x-x-x-|--x-x--x--x-x-x--x--x-|
A|--5-5--5--5-5-5--5--5-|--5-5--5--5-5S-7-7-7-7-x-|--3-3--3--3-3-3--3--3-|
E|----------------------|-------------------------|----------------------|


  S E  E  S S E  E  S    S E  E  S S E  E  S    S E  E  S S  S S S S S  
E|----------------------|----------------------|-------------------------|
B|----------------------|----------------------|-------------------------|
G|--5-5--5--5-5-5--5--5-|--7-7--7--7-7-7--7--7-|--7-7--7--7-7S-9-9-9-9-x-|
D|--x-x--x--x-x-x--x--x-|--x-x--x--x-x-x--x--x-|--x-x--x--x-x--x-x-x-x-x-|
A|--3-3--3--3-3-3--3--3-|--5-5--5--5-5-5--5--5-|--5-5--5--5-5S-7-7-7-7-x-|
E|----------------------|----------------------|-------------------------|


                                                   PM PM PM PM    PM PM PM PM  
  S E  E  S S E  E  S    S E  E  S S E  E  S    E  S  S  S  S  E  S  S  S  S   
E|----------------------|----------------------|--------------------------------|
B|----------------------|----------------------|--------------------------------|
G|--5-5--5--5-5-5--5--5-|--4-4--4--4-2-2--2--2-|--------------------------------|
D|--x-x--x--x-x-x--x--x-|--x-x--x--x-x-x--x--x-|--3--0--0--0--0--3--0--0--0--0--|
A|--3-3--3--3-3-3--3--3-|--2-2--2--2-0-0--0--0-|--3--0--0--0--0--3--0--0--0--0--|
E|----------------------|----------------------|--3--0--0--0--0--3--0--0--0--0--|


     PM PM PM PM                PM PM PM PM    PM PM PM PM  
  E  S  S  S  S  E  E  E     E  S  S  S  S  E  S  S  S  S   
E|--------------------------|--------------------------------|
B|--------------------------|--------------------------------|
G|--------------------------|--------------------------------|
D|--3--0--0--0--0--5--5--5--|--3--0--0--0--0--3--0--0--0--0--|
A|--3--0--0--0--0--5--5--5--|--3--0--0--0--0--3--0--0--0--0--|
E|--3--0--0--0--0--5--5--5--|--3--0--0--0--0--3--0--0--0--0--|


     PM PM PM PM                   PM PM PM PM    PM PM PM PM  
  E  S  S  S  S  E   S E   S    E  S  S  S  S  E  S  S  S  S   
E|-----------------------------|--------------------------------|
B|-----------------------------|--------------------------------|
G|-----------------------------|--------------------------------|
D|--3--0--0--0--0--------------|--3--0--0--0--0--3--0--0--0--0--|
A|--3--0--0--0--0------0-----0-|--3--0--0--0--0--3--0--0--0--0--|
E|--3--0--0--0--0--5b----5b----|--3--0--0--0--0--3--0--0--0--0--|



   Warmin up....                                             
   Q.            Q.         Q.      Q.         H.            
E|--13------------15------|--17------20------|--20------------|
B|--15------------15------|--15------18------|--20------------|
G|------------------------|------------------|----------------|
D|------------------------|------------------|----------------|
A|------------------------|------------------|----------------|
E|------------------------|------------------|----------------|


   T   T   T   T  T   T   T   T  T   T   T   T  T   T   T   T  T   T   T   T  T 
E|--15h-17p-15p-13-15h-17p-15p-13-15h-17p-15p-13-15h-17p-15p-13-15h-17p-15p-13-15h|
B|--------------------------------------------------------------------------------|
G|--------------------------------------------------------------------------------|
D|--------------------------------------------------------------------------------|
A|--------------------------------------------------------------------------------|
E|--------------------------------------------------------------------------------|


Guitar solo:
                       PH                                    
  Q.      Q.           H.                 Q.       Q.        
E|--7b------8b------|-------------------|--10b------10br------|
B|------------------|--<>8b~------------|---------------------|
G|------------------|-------------------|---------------------|
D|------------------|-------------------|---------------------|
A|------------------|-------------------|---------------------|
E|------------------|-------------------|---------------------|


E|----5----| |---5---|
  T   T  T T E  S S T  T  T  T S  S S  S S    E  S S S S E    S S S S S  
--8h-10p-8-7-L--L-8-7h-8p-7----7-----------|----------------------------|
----------------------------10---10-8-10-8-|--6--5-6-5-6-8b~--L-6-8-6-8-|
----E|---------------------------------------|----------------------------|
----E|---------------------------------------|----------------------------|
----E|---------------------------------------|----------------------------|
----E|---------------------------------------|----------------------------|


                                     \0/     \0/      \0/     
  Q     T   T  T  T S  S S  S S S    E   S S E   S S  E  S S  
E|----------------------------------|--------------------------|
B|--8b----8h-10p-8----8-------------|--------------------------|
G|-----------------10---10-9-10-9-7-|--7---5-7-9---7-9-10--9-7-|
D|----------------------------------|--------------------------|
A|----------------------------------|--------------------------|
E|----------------------------------|--------------------------|


                            \6                 
   S  S S S S S Q.          Q.      Q.         
E|-------------------------|---------13brb------|
B|-------------------------|--------------------|
G|--10b-9-7-9-7-7-7br------|--------------------|
D|-------------------------|--7-----------------|
A|-------------------------|--------------------|
E|-------------------------|--------------------|


      
   T      T  T  T  T  T  T  T  T                                  T  T  T  T  T 
E|--10-----12-13-12-10----10-12-13---------------------------------12-10----------|
B|---------------------13------------------------------------------------13-12-10-|
G|--------------------------------------------------------------------------------|
D|--------------------------------------------------------------------------------|
A|--------------------------------------------------------------------------------|
E|--------------------------------------------------------------------------------|


   T  T  T  T  T  T  T  T  T  T  T  T  T  T  T  T  T  T  T  T  T  T  T  T  
E|--15-13-12-10-12-13-15-13-12-10-12-15-15-13-12-10-12-13-15-13-12-10-12-13-|
B|--------------------------------------------------------------------------|
G|--------------------------------------------------------------------------|
D|--------------------------------------------------------------------------|
A|--------------------------------------------------------------------------|
E|--------------------------------------------------------------------------|


   T  T  T  T  T  T  T  T  T  T  T  T  Q.        
E|--15-13-12-10-12-13-15-13-12-10-15-17-22br------|
B|------------------------------------------------|
G|------------------------------------------------|
D|------------------------------------------------|
A|------------------------------------------------|
E|------------------------------------------------|


E|-------5------|
   Q.     Q     T   T   T   T  T     Q     S  S  Q     E   
E|--20------| L----19h-20p-19p-17-19-|--19----17-15-17~-------|
B|---------------------------------|------------------------|
G|---------------------------------|------------------------|
D|---------------------------------|---------------------x--|
A|---------------------------------|---------------------x--|
E|---------------------------------|---------------------x--|


      TP    TP    TP     TP  TP    TP                                        
  E   Q     Q     E      E   Q     Q.                                        
E|---------------------|------10----13------| |--------|-------|-------|-------|
B|-----10----12----13--|--13----------------| |--------|-------|-------|-------|
G|---------------------|--------------------| |*-------|-------|-------|-------|
D|--x------------------|--------------------| |*-------|-------|-------|-------|
A|--x------------------|--------------------| |--------|-------|-------|-------|
E|--x------------------|--------------------| |--------|-------|-------|-------|
Outros vídeos desta música
    4 exibições
      • ½ Tom
      • A
      • Bb
      • B
      • C
      • Db
      • D
      • Eb
      • E
      • F
      • F#
      • G
      • Ab
    • Adicionar à lista

    Afinação da cifra

    Afinador online

      0 comentários

      Ver todos os comentários

      Conseguiu tocar?

      0Tocaram0Ainda não

      Grave um vídeo tocando Suicide e nos envie!

      Toque também

      1. Imagem do artista Strapping Young LadImperial Strapping Young Lad
      2. Imagem do artista AyreonOne Small Step Ayreon
      3. Imagem do artista Pain of SalvationKing Of Loss Pain of Salvation
      4. Imagem do artista Devin Townsend ProjectAddicted Devin Townsend Project

      Entre para o Cifra Club PRO

      Tenha acesso a benefícios exclusivos no App e no Site

      • Chega de anúncios

      • Badges exclusivas

      • Mais recursos no app do Afinador

      • Atendimento Prioritário

      • Aumente seu limite de lista

      • Ajude a produzir mais conteúdo

      Cifra Club Pro

      Aproveite o Cifra Club com benefícios exclusivos e sem anúncios
      Cifra Club Pro
      Aproveite o Cifra Club com benefícios exclusivos e sem anúncios
      Ops (: Contenido disponible sólo en portugués.
      OK