Cifra Club

Zto

Devin Townsend

Cifra: Principal (violão e guitarra)
Selo Cifra Club: esta cifra foi revisada para atender aos critérios oficiais da nossa Equipe de Qualidade.
tom: C
e----------------------------------------------------------------------------|
b----------------------------------------------------------------------------|
g----------------------------------------------------------------------------|
d----------------------------------------------------------------------------|
a--------10-10---------11-11--5--5--5-10-------------------------------------|
e-3-3333--8--8--3-3333--9--9--7--7--7--8-------------------------------------|
b-1-1111--------1-1111--------------------3333-4444-3333-1111-3333-4444-0000-|

e----------------------------------------------------------------------------|
b----------------------------------------------------------------------------|
g----------------------------------------------------------------------------|
d----------------------------------------------------------------------------|
a--------10-10---------11-11--5--5--5-10-------------------------------------|
e-3-3333--8--8--3-3333--9--9--7--7--7--8-------------------------------------|
b-1-1111--------1-1111--------------------3333-4444-3333-1111-3333-4444-0000-|

e----------------------------------------------------------------------------|
b----------------------------------------------------------------------------|
g----------------------------------------------------------------------------|
d----------------------------------------------------------------------------|
a---------------------------------------55555--------------------------------|
e-11/~--666-8-6-5h6p5-----------666-8-6--------------666-8-6-5h6p5-----------|
b--------------------6--4444444---------------4-4444---------------6---------|

e----------------------------------------------------------------------------|
b----------------------------------------------------------------------------|
g----------------------------------------------------------------------------|
d----------------------------------------------------------------------------|
a-----------------55555-6----------------------------------------------------|
e---------666-8-6----------------666-8-6-5h6p5------------666-8-6-5h6p5------|
b-4444444-----------------4-4444---------------6---4-4444---------------6----|

e----------------------------------------------------------------------------|
b----------------------------------------------------------------------------|
g----------------------------------------------------------------------------|
d----------------------------------------------------------------------------|
a----------------------------------------------------------------------------|
e--------666-8-6-5h6p5-----------666-8888888---------------------------------|
b-1-1111---------------6--1-1111---------------------------------------------|

e----------------------------------------------------------------------------|
b----------------------------------------------------------------------------|
g----------------------------------------------------------------------------|
d----------------------------------------------------------------------------|
a--------10-10---------11-11--5--5--5-10-------------------------------------|
e-3-3333--8--8--3-3333--9--9--7--7--7--8-------------------------------------|
b-1-1111--------1-1111-------------------------------------------------------|

Outros vídeos desta música
    313 exibições
      • ½ Tom
      • A
      • Bb
      • B
      • C
      • Db
      • D
      • Eb
      • E
      • F
      • F#
      • G
      • Ab
    • Adicionar à lista

    Afinação da cifra

    Afinador online

      0 comentários

      Ver todos os comentários

      Conseguiu tocar?

      0Tocaram0Ainda não

      Grave um vídeo tocando Zto e nos envie!

      Toque também

      1. Imagem do artista Strapping Young LadImperial Strapping Young Lad
      2. Imagem do artista AyreonCarried By The Wind Ayreon
      3. Imagem do artista Pain of SalvationUndertow Pain of Salvation
      4. Imagem do artista Devin Townsend BandDeadhead Devin Townsend Band

      Entre para o Cifra Club PRO

      Tenha acesso a benefícios exclusivos no App e no Site

      • Chega de anúncios

      • Badges exclusivas

      • Mais recursos no app do Afinador

      • Atendimento Prioritário

      • Aumente seu limite de lista

      • Ajude a produzir mais conteúdo

      Cifra Club Pro

      Aproveite o Cifra Club com benefícios exclusivos e sem anúncios
      Cifra Club Pro
      Aproveite o Cifra Club com benefícios exclusivos e sem anúncios
      Ops (: Contenido disponible sólo en portugués.
      OK