Cifra Club

Aprenda

Lost In Space

Dr. Sin

Cifra: Principal (violão e guitarra)
Tom: Dm
[Introdução - Parte 1]

E|-----------------------------------------------------|
B|-3----3/6--5-----------------------------------------|
G|-2----2/5--4-----------------------------------------|
D|-0---------------------------------------------------|
A|-----------------------------------------------------|
E|-----------------------------------------------------|

  P.M. .   . . .   . . .   . . .
E|-----------------------------------------------------|
B|-----------------------------------------------------|
G|-----------------------------------------------------|
D|-----------------------------------------------------|
A|-5-3-3---5-3-5---5-3-5---5-3-5-----------------------|
E|-5-3-5---5-3-5---5-3-5---5-3-5-----------------------|

E|-----------------------------------------------------|
B|-3----6--6/8-----------------------------------------|
G|-2----5--5/7-----------------------------------------|
D|-0---------------------------------------------------|
A|-----------------------------------------------------|
E|-----------------------------------------------------|


[Introdução - Parte 2]

E|-----------------------------------------------------|
B|-----------------------------------------------------|
G|------7--9--9b10~------7--9--9b10~-------------------|
D|-5/7----------------8--------------------------------|
A|-----------------------------------------------------|
E|-----------------------------------------------------|

E|-----------------------------------------------------|
B|-----------------------------------------------------|
G|-----9--10--10b12~---b12r10p9--12b14--12b14~---------|
D|-10--------------------------------------------------|
A|-----------------------------------------------------|
E|-----------------------------------------------------|

E|-------10--12--12b13~-------10--12--12b13~-----------|
B|-8/10-------------------11---------------------------|
G|-----------------------------------------------------|
D|-----------------------------------------------------|
A|-----------------------------------------------------|
E|-----------------------------------------------------|

E|----12--13--13/15~---12h15p12----------------12-15b17|
B|13----------------------------14----------14---------|
G|---------------------------------15-12h15------------|
D|-----------------------------------------------------|
A|-----------------------------------------------------|
E|-----------------------------------------------------|


[Primeira Estrofe]

I'm so far, really so far 
I don't think I'll ever gonna make it back 
I'm so far, yes! I'm so far 

  P.M. .      . . .       .        
E|-----------------------------------------------------|
B|-----------------------------------------------------|
G|------------------5-------10-10----------------------|
D|-------3----5-6-7-5----12-10-10-12-------------------|
A|-3-4-5-3----5-6-7------12-------12-------------------|
E|-3-4-5-----------------------------------------------|

That I don't think I know where I am 


[Segunda Estrofe]

E|-----------------------------------------------------|
B|-----------------------------------------------------|
G|-5-6-7-6-5-------------------------------------------|
D|-5-6-7-6-5-7-6-5-3---3-5-3---------------------------|
A|-----------7-6-5-3-5-3-5-3-5-------------------------|
E|-------------------5-------5-------------------------|

E|-----------------------------------------------------|
B|-----------------------------------------------------|
G|-5-6-7-6-5-------------------------------------------|
D|-5-6-7-6-5-7-6-5-3---3-5-3---------------------------|
A|-----------7-6-5-3-5-3-5-3-5-------------------------|
E|-------------------5-------5-------------------------|

E|-----------------------------------------------------|
B|-----------------------------------------------------|
G|-5-6-7-6-5-------------------------------------------|
D|-5-6-7-6-5-7-6-5-3---3-5-3---------------------------|
A|-----------7-6-5-3-5-3-5-3-5-------------------------|
E|-------------------5-------5-------------------------|

  P.M. .      . . .       .        
E|-----------------------------------------------------|
B|-----------------------------------------------------|
G|------------------5-------10-10----------------------|
D|-------3----5-6-7-5----12-10-10-12-------------------|
A|-3-4-5-3----5-6-7------12-------12-------------------|
E|-3-4-5-----------------------------------------------|

I can't find any way out 
I can't find anything to hold on to (Hold on to) 
Right now! Right now! 
What I need is just to have another chance 


[Pré-Refrão]

E|-----------------------------------------------------|
B|-----------------------------------------------------|
G|-7-7-7-7-7-7-7-7-9-9-9-9-9-9-9-9---------------------|
D|-----------------------------------------------------|
A|-5-5-5-5-5-5-5-5-7-7-7-7-7-7-7-7---------------------|
E|-----------------------------------------------------|

E|-----------------------------------------------------|
B|-----------------------------------------------------|
G|-10-10-10-10-10-10-10-10-14-14-14-14-14-14-14--------|
D|-----------------------------------------------------|
A|--8--8--8--8--8--8--8--8-12-12-12-12-12-12-12--------|
E|-----------------------------------------------------|

E|-----------------------------------------------------|
B|-----------------------------------------------------|
G|-7-7-7-7-7-7-7-7-9-9-9-9-9-9-9-9---------------------|
D|-----------------------------------------------------|
A|-5-5-5-5-5-5-5-5-7-7-7-7-7-7-7-7---------------------|
E|-----------------------------------------------------|

E|-----------------------------------------------------|
B|-----------------------------------------------------|
G|-10-10-10-10-10-10-10-10-14-14-14-14-14-14-14--------|
D|-----------------------------------------------------|
A|--8--8--8--8--8--8--8--8-12-12-12-12-12-12-12--------|
E|-----------------------------------------------------|

E|-----------------------------------------------------|
B|-----------------------------------------------------|
G|-7-7-7-7-7-7-7-7-9-9-9-9-9-9-9-9---------------------|
D|-----------------------------------------------------|
A|-5-5-5-5-5-5-5-5-7-7-7-7-7-7-7-7---------------------|
E|-----------------------------------------------------|

E|-----------------------------------------------------|
B|-----------------------------------------------------|
G|-10-10-10-10-10-10-10-10-14-14-14-14-14-14-14--------|
D|-----------------------------------------------------|
A|--8--8--8--8--8--8--8--8-12-12-12-12-12-12-12--------|
E|-----------------------------------------------------|

E|-----------------------------------------------------|
B|-----------------------------------------------------|
G|-7-7-7-7-7-7-7-7-9-9-9-9-9-9-9-9---------------------|
D|-----------------------------------------------------|
A|-5-5-5-5-5-5-5-5-7-7-7-7-7-7-7-7---------------------|
E|-----------------------------------------------------|

E|-----------------------------------------------------|
B|-----------------------------------------------------|
G|-14-14-14-14-14-14-14-14-14-14-14-14-14--------------|
D|-----------------------------------------------------|
A|-12-12-12-12-12-12-12-12-12-12-12-12-12--------------|
E|-----------------------------------------------------|

Watching all the stars around me 
(The stars around me) 
I can feel I'm really small 
(Really small) 
Thinking of what I've just left behind me 
(Left behind me) 
Now that I'm lost in space 
I wish I could go back in time 


[Refrão]

And I am 
 D5
Waiting for the day 
     Bb5
When I will find a way 
     C5
And finally have a chance 
    A5            D5
To be back home again 

            ( F5/E  F5 )
Praying for the    day 
               Bb5
When I'll be free from all this pain 
  C5    
This will be the day 
     A5             D5
When I'll be home again 


[Terceira Estrofe]

  P.M. . . . . . . . . . . . .
E|-----------------------------------------------------|
B|-----------------------------------------------------|
G|-5-6-7-6-5-------------------------------------------|
D|-5-6-7-6-5-7-6-5-3---3-5-3---------------------------|
A|-----------7-6-5-3-5-3-5-3-5-------------------------|
E|-------------------5-------5-------------------------|

  P.M. . . . . . . . . . . . .
E|-----------------------------------------------------|
B|-----------------------------------------------------|
G|-5-6-7-6-5-------------------------------------------|
D|-5-6-7-6-5-7-6-5-3---3-5-3---------------------------|
A|-----------7-6-5-3-5-3-5-3-5-------------------------|
E|-------------------5-------5-------------------------|

  P.M. . . . . . . . . . . . .
E|-----------------------------------------------------|
B|-----------------------------------------------------|
G|-5-6-7-6-5-------------------------------------------|
D|-5-6-7-6-5-7-6-5-3---3-5-3---------------------------|
A|-----------7-6-5-3-5-3-5-3-5-------------------------|
E|-------------------5-------5-------------------------|

  P.M. .      . . .       .        
E|-----------------------------------------------------|
B|-----------------------------------------------------|
G|------------------5-------10-10----------------------|
D|-------3----5-6-7-5----12-10-10-12-------------------|
A|-3-4-5-3----5-6-7------12-------12-------------------|
E|-3-4-5-----------------------------------------------|

So down, so down 
I fell just like I' so alone and left behind 
Come on! So come on! 
Put yourself together
Just don't lose it now


[Quarta Estrofe]

E|-----------------------------------------------------|
B|-----------------------------------------------------|
G|-5-6-7-6-5-------------------------------------------|
D|-5-6-7-6-5-7-6-5-3---3-5-3---------------------------|
A|-----------7-6-5-3-5-3-5-3-5-------------------------|
E|-------------------5-------5-------------------------|

E|-----------------------------------------------------|
B|-----------------------------------------------------|
G|-5-6-7-6-5-------------------------------------------|
D|-5-6-7-6-5-7-6-5-3---3-5-3---------------------------|
A|-----------7-6-5-3-5-3-5-3-5-------------------------|
E|-------------------5-------5-------------------------|

E|-----------------------------------------------------|
B|-----------------------------------------------------|
G|-5-6-7-6-5-------------------------------------------|
D|-5-6-7-6-5-7-6-5-3---3-5-3---------------------------|
A|-----------7-6-5-3-5-3-5-3-5-------------------------|
E|-------------------5-------5-------------------------|

  P.M. .      . . .       .        
E|-----------------------------------------------------|
B|-----------------------------------------------------|
G|------------------5-------10-10----------------------|
D|-------3----5-6-7-5----12-10-10-12-------------------|
A|-3-4-5-3----5-6-7------12-------12-------------------|
E|-3-4-5-----------------------------------------------|

No time, there's no time 
I've got to believe that I'll be on my way 
(On my way) 
Never give in! Never give in! 
What I need is just to have another chance 


[Pré-Refrão]

Watching all the stars around me 
(The stars around me) 
I can feel I'm really small 
(Really small) 
Thinking of what I've just left behind me 
(Left behind me) 
Now that I'm lost in space 
I wish I could go back in time 


[Refrão]

 D5
Waiting for the day 
     Bb5
When I will find a way 
     C5
And finally have a chance 
    A5            D5
To be back home again 

            ( F5/E  F5 )
Praying for the    day 
               Bb5
When I'll be free from all this pain 
  C5    
This will be the day 
     A5             D5
When I'll be home again 


[Interlúdio]

        P.M. . .
E|-----------------------------------------------------|
B|-----------------------------------------------------|
G|-----------------------------------------------------|
D|-----------------------------------------------------|
A|-5\----3-5-3-5\--------------------------------------|
E|-5\----3-5-3-5\--------------------------------------|

  P.M. . .       . . . .
E|-----------------------------------------------------|
B|-----------------------------------------------------|
G|---------5-6-7---------5-6-7-------------------------|
D|---------5-6-7---------5-6-7-------------------------|
A|-5-3-5-3-------5-3-5-3-------------------------------|
E|-5-3-5-3-------5-3-5-3-------------------------------|

  P.M. . .       . . . .
E|-----------------------------------------------------|
B|-----------------------------------------------------|
G|---------5-6-7---------5-6-7-------------------------|
D|---------5-6-7---------5-6-7-------------------------|
A|-5-3-5-3-------5-3-5-3-------------------------------|
E|-5-3-5-3-------5-3-5-3-------------------------------|

E|-----------------------------------------12--13------|
B|-------------------------------------13--------------|
G|------7--9--9b10~------7--9--9b10~-------------------|
D|-5/7----------------8--------------------------------|
A|-----------------------------------------------------|
E|-----------------------------------------------------|

E|-13/18~---15h18p15----------------15--20b22~---------|
B|-------------------17----------17--------------------|
G|----------------------18-15h18-----------------------|
D|-----------------------------------------------------|
A|-----------------------------------------------------|
E|-----------------------------------------------------|


[Solo]

Parte 1 de 6
E|-------13-15-15/17-13-15-----12b13r12----------------|
B|----15--------------------------------13h15-10----10-|
G|-14--------------------------------------------12----|
D|-----------------------------------------------------|
A|-----------------------------------------------------|
E|-----------------------------------------------------|

                               H.A
E|-----------------------------------------------------|
B|-----------------------------------------------------|
G|-13\12-10~~-9b10r9-----9h10--10----------------------|
D|--------------------12-------------------------------|
A|-----------------------------------------------------|
E|-----------------------------------------------------|


Parte 2 de 6
E|-----------------------------------------------------|
B|-----------------------------------------------------|
G|-----------------------------------------------------|
D|-------------------------------10h12h15p12p10h12h15--|
A|---------8h10h12p10p8/10h12h15-----------------------|
E|-8h10h12---------------------------------------------|

E|-------------------------------------------13--------|
B|----------------------10h13h15p13p10h12h13-----------|
G|-10h12h14p12p10h12h14--------------------------------|
D|-----------------------------------------------------|
A|-----------------------------------------------------|
E|-----------------------------------------------------|

E|-------------------15-------------------17-----------|
B|-13p12p10/12h13h15----15p13p12/13h15h17----17p15p13--|
G|-----------------------------------------------------|
D|-----------------------------------------------------|
A|-----------------------------------------------------|
E|-----------------------------------------------------|
                               T
E|-15b17----15b17r15p13-15b17--20----------------------|
B|-----------------------------------------------------|
G|-----------------------------------------------------|
D|-----------------------------------------------------|
A|-----------------------------------------------------|
E|-----------------------------------------------------|

Parte 3 de 6
E|-17h20p17--------------------------------------------|
B|----------18-----------------------------------------|
G|-------------19-17\14h15h17p15p14--------------------|
D|----------------------------------17p14h15h17p15p14--|
A|-----------------------------------------------------|
E|-----------------------------------------------------|

E|-----------------------------------------------------|
B|-----------------------------------------------------|
G|-----------------------------------------------------|
D|-----------------------------------------------------|
A|-17p13h15h17p15p13-12~-------------------------------|
E|-----------------------------------------------------|

Parte 4 de 6
E|-----------------------------------------------------|
B|-----------------------------------------------------|
G|-10-10/12----12\10--10\9--9/10--10-------------------|
D|-----------------------------------------------------|
A|--8--8/10----10\-8---8\7--7/-8---8-------------------|
E|-----------------------------------------------------|

Parte 5 de 6
E|-10------10-10------10-------10-12-13-12h13p12p10----|
B|-13b15------13b15------13b15-------------------------|
G|-----------------------------------------------------|
D|-----------------------------------------------------|
A|-----------------------------------------------------|
E|-----------------------------------------------------|

E|----10-12-13-12h13p12p10/----------------------------|
B|-13--------------------------------------------------|
G|-----------------------------------------------------|
D|-----------------------------------------------------|
A|-----------------------------------------------------|
E|-----------------------------------------------------|

Parte 6 de 6
E|-/17h18h21p18p17-------------------------------------|
B|-----------------20-17h18h20p18p17-------------------|
G|-----------------------------------19-15h18h19p18p15-|
D|-----------------------------------------------------|
A|-----------------------------------------------------|
E|-----------------------------------------------------|

E|-----------------------------------------------------|
B|-----------------------------------------------------|
G|-------------------------------15-18h19p18p15h18h19--|
D|-19-15h17h19p17p15h17p15h17h19-----------------------|
A|-----------------------------------------------------|
E|-----------------------------------------------------|

E|----------------------17-18-20b22--------------------|
B|-17-18h20p18p17h18h20--------------------------------|
G|-----------------------------------------------------|
D|-----------------------------------------------------|
A|-----------------------------------------------------|
E|-----------------------------------------------------|


[Refrão Final]

 D5
Waiting for the day 
     Bb5
When I will find a way 
     C5
And finally have a chance 
    A5            D5
To be back home again 

            ( F5/E  F5 )
Praying for the    day 
               Bb5
When I'll be free from all this pain 
  C5    
This will be the day 
     A5             D5
When I'll be home again 

 D5
Waiting for the day 
     Bb5
When I will find a way 
     C5
And finally have a chance 
    A5            D5
To be back home again 

            ( F5/E  F5 )
Praying for the    day 
               Bb5
When I'll be free from all this pain 
  C5    
This will be the day 
     A5             D5
When I'll be home again 


Final:

    P.M  .     .   .   .     .
E|-----------------------------------------------------|
B|-----------------------------------------------------|
G|-----------------------------------------------------|
D|-5---3---2-3---5---3---2-3---------------------------|
A|---7---5-----5---7---5-----5-------------------------|
E|-----------------------------------------------------|

    P.M  .     .   .   .     .
E|-----------------------------------------------------|
B|-----------------------------------------------------|
G|-----------------------------------------------------|
D|-5---3---2-3---5---3---2-3---------------------------|
A|---7---5-----5---7---5-----5-------------------------|
E|-----------------------------------------------------|

    P.M  .     .   .   .     .
E|-----------------------------------------------------|
B|-----------------------------------------------------|
G|-----------------------------------------------------|
D|-5---3---2-3---5---3---2-3---------------------------|
A|---7---5-----5---7---5-----5-------------------------|
E|-----------------------------------------------------|

    P.M  .     .   .   .     .
E|-----------------------------------------------------|
B|-----------------------------------------------------|
G|-----------------------------------------------------|
D|-5---3---2-3---5---3---2-3---------------------------|
A|---7---5-----5---7---5-----5-------------------------|
E|-----------------------------------------------------|

    P.M  .     .   .   .     .
E|-----------------------------------------------------|
B|-----------------------------------------------------|
G|-----------------------------------------------------|
D|-5---3---2-3---5---3---2-3---------------------------|
A|---7---5-----5---7---5-----5-------------------------|
E|-----------------------------------------------------|

E|-----------------------------------------------------|
B|-----------------------------------------------------|
G|-----------------------------------------------------|
D|-----------------------------------------------------|
A|-5---5\----------------------------------------------|
E|-5---5\----------------------------------------------|
Composição de ANDRIA BUSIC / Dr.Sin / IVAN BUSIC / Thiago Melo
Colaboração e revisão:
  • Vinícius Dias
528 exibições
    • ½ Tom
    • Am
    • Bbm
    • Bm
    • Cm
    • C#m
    • Dm
    • Ebm
    • Em
    • Fm
    • F#m
    • Gm
    • G#m
  • Adicionar à lista

    0 comentários

    Mostrar mais comentários

    Conseguiu tocar?

    0 Tocaram 0 Ainda não

    Grave um vídeo tocando Lost In Space e mande pra gente!

    00:00 / 00:00
    outros vídeos desta música
    repetir qualidade Automático
    Outros vídeos desta música
    00:00 / 00:00
    Automático
    Capítulos
    • Tocando a música
    • Apresentação / Equipamentos
    • Ensinando Introdução
    • Ensinando tema principal
    • Dicas dos momentos com vocal
    • Ensinando Riff das estrofes
    • Ensinando Pré-Refrão
    • Dicas solo
    • Ensinando entrada solo
    • Ensinando solo
    • Encerramento

    Cifra Club Pro

    Aproveite o Cifra Club com benefícios exclusivos e sem anúncios
    7 dias grátis
    Cifra Club Pro
    Aproveite o Cifra Club com benefícios exclusivos e sem anúncios
    7 dias grátis
    OK