Cifra Club

Aprenda

Zero

Dr. Sin

Cifra: Principal (violão e guitarra)
Tom: G
Introdução:

(Riff Principal 2x)

E|----------------------------------------------------|
B|----------5-----------------------------------------|
G|----4-6-7-------------------------------------------|
D|-/4-------------------------------------------------|
A|----------------------------------------------------|
E|----------------------------------------------------|

E|--------5/7\5---------------------------------------|
B|--------3/5\3------10-------------------------------|
G|-0--0-0--------/11----11\9-7-7h9--9--7--------------|
D|----------------0------------7----------------------|
A|-----------------------------0----------------------|
E|----------------------------------------------------|

E|----------------------------------------------------|
B|------10--10--12------------------------------------|
G|-9/11-------------11p9---------9--------------------|
D|-0---------------------12--12-----------------------|
A|------------------10--------------------------------|
E|----------------------------------------------------|

E|----------------------------------------------------|
B|------10--------------------------------------------|
G|-9/11----11\9-7-7h9~--------------------------------|
D|-0--------------7-----------------------------------|
A|----------------0-----------------------------------|
E|----------------------------------------------------|


Primeira Parte:

   D7
E|----------------------------------------------------|
B|--------1-1-0----------------1-3-0------------------|
G|----0h2-------0-2--------0h2-------0-2------0-------|
D|-0----------------0----0----------------0-0---4p2-0-|
A|----------------------------------------------------|
E|----------------------------------------------------|

                          C5(9)       G   C5(9)
E|------------------------3---3---3---3---3-----------|
B|-------1-1-0----------x-3---3---3---3---3-----------|
G|---0h2-------0-2------x-5---5---5---4---5-----------|
D|-0---------------0----x-5---5---5---5---5-----------|
A|----------------------------------------------------|
E|----------------------------------------------------|

   D7
E|----------------------------------------------------|
B|--------1-1-0----------------1-3-0------------------|
G|----0h2-------0-2--------0h2-------0-2------0-------|
D|-0----------------0---------------------------4p2-0-|
A|----------------------------------------------------|
E|----------------------------------------------------|

                       C5(9)  G      D5     D5-
E|---------------------3-3-3--3-3-3-------------------|
B|-------1-1-0---------3-3-3--3-3-3--3-3-3--3-3-3--x-x|
G|---0h2-------0-2-----5-5-5--4-4-4--2-2-2--1-1-1--x-x|
D|-----------------0---5-5-5--5-5-5--0-0-0--0-0-0--x-x|
A|----------------------------------------------------|
E|----------------------------------------------------|

 D7
Keep your faith in the hero

Take a look in the mirror
                                 C5(9)  G  C5(9)
Some things are gonna bring you down

 D7
You're no saint, you're no sinner

Always being a believer
                                    C5(9)  G  D5  D5-
That's the only way he knows to survive


Segunda Parte:

   C5(9)    G5
E|-3--3-3-3-3---3----3-3------------------------------|
B|-3--3-3-3-3---3----3-3------------------------------|
G|-0--0-0-0-0---0----0-0------------------------------|
D|----------0---0-0--0-0-0-0--------------------------|
A|-3--3-3-3-------------------------------------------|
E|----------3-----3------3-3--------------------------|

  F5 G5       F5 G5       F5 G5
E|----------------------------------------------------|
B|----------------------------------------------------|
G|----------------------------------------------------|
D|-3/5--5-x-x--3/5--5-x-x--3/5-5-5--------------------|
A|-3/5--5-x-x--3/5--5-x-x--3/5-5-5--------------------|
E|-1/3--3-x-x--1/3--3-x-x--1/3-3-3--------------------|

   C5(9)    G5
E|-3--3-3-3-3---3----3-3------------------------------|
B|-3--3-3-3-3---3----3-3------------------------------|
G|-0--0-0-0-0---0----0-0------------------------------|
D|----------0---0-0--0-0-0-0--------------------------|
A|-3--3-3-3-------------------------------------------|
E|----------3-----3------3-3--------------------------|

  F5 G5       F5 G5       F5 G5    D5
E|----------------------------------------------------|
B|---------------------------------3~~----------------|
G|---------------------------------2~~----------------|
D|-3/5--5-x-x--3/5--5-x-x--3/5-5-x-0------------------|
A|-3/5--5-x-x--3/5--5-x-x--3/5-5-x--------------------|
E|-1/3--3-x-x--1/3--3-x-x--1/3-3-x--------------------|

C5(9)  G5
          And he sees that
C5(9)  G5                      D5
          There's no way back now


Primeiro Refrão:

(Riff Principal)

I know
He's tired of being a zero
God knows
God knows he's nobody's hero


Terceira Parte:

    D7
He puts his head on the pillow

Feels the pain in his soul
                            C5(9)  G  C5(9)
Nowhere to run, nowhere to hide

    D7
He doesn't feel like a hero

Never looks in the mirror
                              C5(9)  G  D5  D5-
He's afraid of what he would see


Quarta Parte:

C5(9)  G5
          And he sees that
C5(9)  G5
          There's no way back now


Ponte:

   P.M . . . . . . . . . . . . . . . . . . . . .
E|----------------------------------------------------|
B|----------------------------------------------------|
G|-----0-2-5-0-2-4-0-2-5-0-2-4-0-4-5-0-5-7-0-7-9------|
D|-0-0------------------------------------------------|
A|----------------------------------------------------|
E|----------------------------------------------------|
   P.M .  . .  .  .  . .
E|----------------------------------------------------|
B|----------------------------------------------------|
G|-0-9-11-0-11-12-11-9--------------------------------|
D|---------------------12-0-10h12-0-9h10-0-7h9-0-6h7--|
A|----------------------------------------------------|
E|----------------------------------------------------|
        H.A
E|----------------------------------------------------|
B|----------------------------------------------------|
G|----------------------------------------------------|
D|-0-4-0-6~--0-4-0-0-6-0-0-4-0-0-4~~-4-4--------------|
A|----------------------------------------------------|
E|----------------------------------------------------|
   P.M . . . . . . . . . . . . . . . . . . . . .
E|----------------------------------------------------|
B|----------------------------------------------------|
G|-----0-2-5-0-2-4-0-2-5-0-2-4-0-4-5-0-5-7-0-7-9------|
D|-0-0------------------------------------------------|
A|----------------------------------------------------|
E|----------------------------------------------------|
   P.M .  . .  .  .  . .
E|----------------------------------------------------|
B|----------------------------------------------------|
G|-0-9-11-0-11-12-11-9--------------------------------|
D|---------------------12-0-10h12-0-9h10-0-7h9-0-6h7--|
A|----------------------------------------------------|
E|----------------------------------------------------|

E|----------------------------------------------------|
B|----------------------------------------------------|
G|----------------------------------------------------|
D|-0-4-0-6~--0-4-0-0-6-0-0-4-0-0-4~-p0h4p0h4p0h4p0----|
A|----------------------------------------------------|
E|----------------------------------------------------|

(Riff Principal)

E|----------------------------------------------------|
B|----------5-----------------------------------------|
G|----4-6-7-------------------------------------------|
D|-/4-------------------------------------------------|
A|----------------------------------------------------|
E|----------------------------------------------------|

E|--------5/7\5---------------------------------------|
B|--------3/5\3------10-------------------------------|
G|-0--0-0--------/11----11\9-7-7h9--9--7--------------|
D|----------------0------------7----------------------|
A|-----------------------------0----------------------|
E|----------------------------------------------------|

E|----------------------------------------------------|
B|------10--10--12------------------------------------|
G|-9/11-------------11p9---------9--------------------|
D|-0---------------------12--12-----------------------|
A|------------------10--------------------------------|
E|----------------------------------------------------|

E|----------------------------------------------------|
B|------10--------------------------------------------|
G|-9/11----11\9-7-7h9~--------------------------------|
D|-0--------------7-----------------------------------|
A|----------------0-----------------------------------|
E|----------------------------------------------------|

I know
He's tired of being a zero


Solo:

(Parte 1)

E|----------------------------------------------------|
B|------------12-17b20r19r-17~~-15--------------------|
G|----9-11-12----------------------14h16~~------------|
D|-/9-------------------------------------------------|
A|----------------------------------------------------|
E|----------------------------------------------------|

(Parte 2)

E|-----------------------19---------------------------|
B|-----17----19----20---------------------------------|
G|-/16----16----16----16----16------------------------|
D|----------------------------------------------------|
A|----------------------------------------------------|
E|----------------------------------------------------|

(Parte 3)

E|-19h20p19p15----------------------------------------|
B|-------------17-------------------------------------|
G|----------------17p16-------------------------------|
D|----------------------17-------------16h17h19-------|
A|-------------------------19-15h17h19----------------|
E|----------------------------------------------------|

E|----------------------------------------------------|
B|----------------------------------------------------|
G|-16h17h19p17h19p17p16-------------------------------|
D|----------------------19p17p16----------------------|
A|-------------------------------19~~-----------------|
E|----------------------------------------------------|

(Parte 4)

E|----------15-19p15----------15-19-------------------|
B|-------17----------17----17-------------------------|
G|----16----------------16----------------------------|
D|-17-------------------------------------------------|
A|----------------------------------------------------|
E|----------------------------------------------------|

E|-17p14----------14-17----15p12----------12-14-------|
B|-------15----15----------------13----13-------------|
G|----------14----------------------12----------------|
D|----------------------------------------------------|
A|----------------------------------------------------|
E|----------------------------------------------------|

(Parte 5)

E|-15\14p10----------------------------14-15----------|
B|----------12----------------------12----------------|
G|-------------12----------------12----------14b16~---|
D|----------------12----------12----------------------|
A|-------------------14-10h14-------------------------|
E|----------------------------------------------------|

(Parte 6)

E|----------------------------------------------------|
B|----------------------------------------------------|
G|-14b16r14p12----12h14p12----------------------------|
D|-------------14----------14-------------------------|
A|----------------------------------------------------|
E|----------------------------------------------------|
                      P.M
E|----------------------------------------------------|
B|-15p12p10-----------------------3/5~-\--------------|
G|----------12------------2p0-------------------------|
D|-------------14\7p5---------2p0---------------------|
A|--------------------7-5-----------------------------|
E|----------------------------------------------------|

(Riff Principal)

E|----------------------------------------------------|
B|----------5-----------------------------------------|
G|----4-6-7-------------------------------------------|
D|-/4-------------------------------------------------|
A|----------------------------------------------------|
E|----------------------------------------------------|

E|--------5/7\5---------------------------------------|
B|--------3/5\3------10-------------------------------|
G|-0--0-0--------/11----11\9-7-7h9--9--7--------------|
D|----------------0------------7----------------------|
A|-----------------------------0----------------------|
E|----------------------------------------------------|

E|----------------------------------------------------|
B|------10--10--12------------------------------------|
G|-9/11-------------11p9---------9--------------------|
D|-0---------------------12--12-----------------------|
A|------------------10--------------------------------|
E|----------------------------------------------------|

E|----------------------------------------------------|
B|------10--------------------------------------------|
G|-9/11----11\9-7-7h9~--------------------------------|
D|-0--------------7-----------------------------------|
A|----------------0-----------------------------------|
E|----------------------------------------------------|


(Riff)


Segundo Refrão:

(Riff Principal)

I know
He's tired of being a zero
God knows
God knows he's nobody's hero

E|----------------------------------------------------|
B|--------------------------3-0-----------------------|
G|----------2-----0-------0---------------------------|
D|----2-4-5-----2---0---4-----------------------------|
A|-/2---------3-------5-------------------------------|
E|----------------------------------------------------|

E|-----------------------------0----------------------|
B|-----------------------------0----------------------|
G|----------2-----0------------0----------------------|
D|----2-4-5-----2---0-/7-5-4p0-2----------------------|
A|-/2---------3--------0-------2----------------------|
E|-----------------------------0----------------------|

God knows
God knows he's nobody's hero

E|----------------------------------------------------|
B|--------------------------3-0-----------------------|
G|----------2-----0-------0---------------------------|
D|----2-4-5-----2---0---4-----------------------------|
A|-/2---------3-------5-------------------------------|
E|----------------------------------------------------|

E|-----------------------------0----------------------|
B|-----------------------------0----------------------|
G|----------2-----0------------0----------------------|
D|----2-4-5-----2---0-/7-5-4p0-2----------------------|
A|-/2---------3--------0-------2----------------------|
E|-----------------------------0----------------------|

God knows
God knows he's nobody's hero

E|----------0--0--------------------------------------|
B|----------0--0------------3-0-----------------------|
G|----------5--5--x-x-----0---0-----------------------|
D|-x/---\---5--5--x-x---4-----------------------------|
A|-x/---\---3--3--x-x-5-------------------------------|
E|-x/---\---------------------------------------------|

E|-----------------------------0----------------------|
B|-----------------------------0----------------------|
G|----------2-----0------------0----------------------|
D|----2-4-5-----2---0-/7-5-4p0-2----------------------|
A|-/2---------3--------0-------2----------------------|
E|-----------------------------0----------------------|

E|----------------------------------------------------|
B|--------------------------3-0-----------------------|
G|----------2-----0-------0---------------------------|
D|----2-4-5-----2---0---4-----------------------------|
A|-/2---------3-------5-------------------------------|
E|----------------------------------------------------|

E|-----------------------------0----------------------|
B|-----------------------------0----------------------|
G|----------2-----0------------0----------------------|
D|----2-4-5-----2---0-/7-5-4p0-2----------------------|
A|-/2---------3--------0-------2----------------------|
E|-----------------------------0----------------------|

Final:

E|--------------------------------------0-------------|
B|--------~---0-0-0-0-----------~-0-----0-------------|
G|-7-7-7-7~---0-0-0-0----7-7-7-7~-0-----0-------------|
D|-6-6-6-6~---2-2-2-2~---6-6-6-6~-2--2----------------|
A|-7-7-7-7~---2-2-2-2~---7-7-7-7~----2----------------|
E|-----------------------------------0----------------|

E|--------------------------------------0-------------|
B|--------~---0-0-0-0-----------~-0-----0-------------|
G|-7-7-7-7~---0-0-0-0----7-7-7-7~-0-----0-------------|
D|-6-6-6-6~---2-2-2-2~---6-6-6-6~-2--2----------------|
A|-7-7-7-7~---2-2-2-2~---7-7-7-7~----2----------------|
E|-----------------------------------0----------------|
Colaboração e revisão:
  • Vinícius Dias
  • Luis Mazzeto
15.688 exibições
    • ½ Tom
    • A
    • Bb
    • B
    • C
    • Db
    • D
    • Eb
    • E
    • F
    • F#
    • G
    • Ab
  • Adicionar à lista

    0 comentários

    Mostrar mais comentários

    Conseguiu tocar?

    4 Tocaram 0 Ainda não

    Grave um vídeo tocando Zero e mande pra gente!

    00:00 / 00:00
    outros vídeos desta música
    repetir qualidade Automático
    Outros vídeos desta música
    00:00 / 00:00
    Automático
    Capítulos
    • Início
    • Afinação
    • Tocando a Música
    • Tocando Introdução
    • Ensinando Introdução
    • Acordes Primeira Parte
    • Tocando Primeira Parte
    • Ensinando Primeira Parte
    • Acordes Segunda Parte
    • Tocando Segunda Parte
    • Ensinando Segunda Parte
    • Tocando Refrão
    • Ensinando Ponte
    • Tocando Solo
    • Ensinando Solo
    • Tocando Variação Refrão
    • Ensinando Variação Refrão
    • Encerramento

    Cifra Club Pro

    Aproveite o Cifra Club com benefícios exclusivos e sem anúncios
    7 dias grátis
    Cifra Club Pro
    Aproveite o Cifra Club com benefícios exclusivos e sem anúncios
    7 dias grátis
    OK