Cifra Club

Aprenda

Pull Me Under

Dream Theater

Cifra: Solo (violão e guitarra)
Já pensou em usar uma coleção de roupas do Cifra Club? Responda as perguntas abaixo e nos ajude nessa missão! →
tom: A
Parte 1 de 4
E|----------------------------------------9~|
B|-7b8r7--5-------7b8r7--5------------------|
G|-----------4~-------------5~----9b11r9----|
D|------------------------------------------|
A|------------------------------------------|
E|------------------------------------------|

E|-/10--9p7---------------------------------|
B|----------10p8p7--------------------------|
G|-----------------9p7p6--------------------|
D|-----------------------9p7p5--------------|
A|-----------------------------9~-----------|
E|------------------------------------------|

Parte 2 de 4
E|-14b15r14--12---------14b15r14--12--------|
B|---------------12~------------------13~---|
G|------------------------------------------|
D|------------------------------------------|
A|------------------------------------------|
E|------------------------------------------|

Parte 3 de 4
E|-16p12-16p12----12-16p12-16p12----12------|
B|-------------14----------------14---------|
G|------------------------------------------|
D|------------------------------------------|
A|------------------------------------------|
E|------------------------------------------|

E|-17p12-17p12----12-16p12-16p12----12------|
B|-------------14----------------14---------|
G|------------------------------------------|
D|------------------------------------------|
A|------------------------------------------|
E|------------------------------------------|

Parte 4 de 4
E|-14h15p14p12------------------------------|
B|-------------15-13-12-10-12h13p12p10------|
G|------------------------------------------|
D|------------------------------------------|
A|------------------------------------------|
E|------------------------------------------|

E|------------------------------------------|
B|------------------------------------------|
G|-12-11-9-8-9h11p8p7-----------------------|
D|--------------------10-9-7-5--------------|
A|------------------------------------------|
E|------------------------------------------|

E|------------------------------------------|
B|------------------------------------------|
G|-----------------9~-----------------------|
D|-7h9p7p5----------------------------------|
A|---------9-7-6-7--------------------------|
E|------------------------------------------|
Composição de Dream Theater / Kevin Moore
Colaboração e revisão:
  • Vinícius Dias
  • Thiago Almeida
1.488 exibições
    • ½ Tom
    • A
    • Bb
    • B
    • C
    • Db
    • D
    • Eb
    • E
    • F
    • F#
    • G
    • Ab
  • Adicionar à lista

    0 comentários

    Ver todos os comentários
    00:00 / 00:00
    Outros vídeos desta música
    Repetir Qualidade Automático
    Outros vídeos desta música
    00:00 / 00:00
    Automático
    Capítulos
    • Tocando Solo
    • Apresentação / Equipamentos
    • Tocando Solo Lento
    • Encerramento

    Cifra Club Pro

    Aproveite o Cifra Club com benefícios exclusivos e sem anúncios
    Cifra Club Pro
    Aproveite o Cifra Club com benefícios exclusivos e sem anúncios
    OK